Beatles - Sgt Pepper's Lonely Hearts Club Band Chords & Tabs

 

Sgt Pepper's Lonely Hearts Club Band Chords & Tabs

Beatles Chords & Tabs

Version: 1 Type: Bass Tab 0 ratings
1 star 2 stars 3 stars 4 stars 5 stars
comments

Sgt Pepper's Lonely Hearts Club Band Bass Tab

Band - The Beatles
Song - Sgt. Peppers lonely Heart's Club Band

Intro: 
G|------------------------|    
D|------------------------|    
A|------------------------| x2 
E|-5-5-5-5--5--5--5--5-|

G|------------------------|
D|------------------------|
A|3--3--3--3--3--3--3--3--|
E|-----------------------3|

Verse:
G|------------------------|------------------------|
D|------------------------|------------------------|
A|------------------------|-3--3--3----------------| x2
E|-3--3--3----5--5--5-----|------------3--3--3-----|

G|------------------------|------------------------|
D|------------------------|------------------------|
A|------------------------|-3--3--3--3--3--3--3-3-|
E|-5--5--5--5--5--5--5--5-|------------------------|
  
G|------------------------|------------------------|
D|------------------------|------------------------|
A|-------2--2--3--3--4--5-|-------2--2--5--5--2--2-|
E|-3--3-------------------|-3--3-------------------|

G|------------------------|------------------------|------------------------|
D|------------------------|-3--3--0--0-------------|------------------------|
A|-3--3-------------------|-------------3--3--0--0-|-3--3--3--3--3--3--3--3-|
E|-------6--6--5--5-3--3-|------------------------|------------------------|

G|------------------------|------------------------|
D|------------------------|------------------------|
A|-5-----5-----5-----5----|-5-----5-----5----------|
E|----5-----5-----5-----5-|----5-----5-------------|

Chorus:
G|------------------------|------------------------|-----------------------|
D|------------------------|------------------------|-----------------------|
A|------------------------|-3--3-------------------|-3--3------------------|
E|---3--3------6--6-------|-----------3--3---------|-------6--6--55--3--3-|
[ Tab from: http://www.guitartabs.cc/tabs/b/beatles/sgt_peppers_lonely_hearts_club_band_btab.html ]
G|------------------------|------------------------|-----------------------|
D|------------------------|------------------------|-----------------------|
A|------------------------|------------------------|-3--3------------------|
E|-3--3--3--3--3--3--3--0-|-3--3------6--6---------|-----------3--3--------|

G|------------------------|------------------------|
D|------------------------|------------------------|
A|------------------------|-5----------------------|
E|-5--5--5--0--5--5--5-0-|------------------------|

Bridge:
G|------------------------|------------------------|
D|------------------------|------------------------|
A|-3--3--3-----3--3--3----|----------5-------------|
E|----------3-----------3-|-3--3--3-----3--3--3-4-|

G|------------------------|------------------------|
D|------------------------|------------------------|
A|----------------------3-|---5---------5----------|
E|-5--5--5--5--5--5--5----|--------3-------3------|

G|------------------------|------------------------|------------------------|
D|------------------------|------------------------|------------------------|
A|-3--3-------------------|-------0--0--3--3--0----|-3--3-------------------|
E|-------6--6--5--5--3--3-|-1--1-----------------3-|-------6--6--5--5--3--3-|

G|------------------------|------------------------|
D|------------------------|------------------------|
A|-5-----5-----5----------|-5-----5-----5----------|
E|----5-----5-----5--2--5-|----5-----5-------------|

Verse:
G|------------------------|------------------------|
D|------------------------|------------------------|
A|------------------------|-3--3--3----------------| x2
E|-3--3--3----5--5--5-----|------------3--3--3-----|

G|------------------------|------------------------|
D|------------------------|------------------------|
A|------------------------|------------------------|
E|-5--5--5--5--5--5--5--5-|-8--8--8--8--8-8--8----|
  
G|------------------------|------------------------|
D|------------------------|------------------------|
A|-------2--2--3--3--4--5-|-------2--2--5--5--2--2-|
E|-3--3-------------------|-3--3-------------------|

Outro:
G|------------------------|------------------------|
D|------------------------|------------------------|
A|-3--3-------------------|-3--3-------------------|
E|-------6--6--5--5--3--3-|-------6--6--5--5--3--3-|
Comments