Beatles - Run For Your Life Chords & Tabs

 

Run For Your Life Chords & Tabs

Beatles Chords & Tabs

Version: 1 Type: Tab 0 ratings
1 star 2 stars 3 stars 4 stars 5 stars
comments

Run For Your Life Tab

----------------------------------PLEASE NOTE---------------------------------#
#This file is the author's own work and represents their interpretation of the #
#song. You may only use this file for private study, scholarship, or research. #
#------------------------------------------------------------------------------#
Date: Sat, 20 Jan 1996 04:42:29 -0600 
From: cts@mail.utexas.EDU (chris) 
Subject: Run For Your Life by The Beatles 
 
                             Run For Your Life 
                             (Lennon/McCartney) 


Intro: 
 
 
The song opens with an acoustic guitar playing a D. Then two electric guitars 
enter: 
 
 e. guitar 1 
|------------|------------|------------|------------|-----------| 
|------1---0-|------------|------1---0-|------------|-----------| 
|------------|-2--------2-|------------|-2--------2-|-----------| 
|-0----------|-----3--4---|-0----------|-----3--4---|-----------| 
|------------|------------|------------|------------|-----------| 
|------------|------------|------------|------------|-----------| 
 
 e. guitar 2 
|------------|------------|------------|------------|-----------| 
|------------|----------5-|/7----7-----|----------5-|/7----5----| 
|------------|----------5-|/7----5-----|----------5-|/7----5----| 
|------------|----------5-|/7----7-----|----------5-|/7----7----| 
|------------|------------|------------|------------|-----------| 
|------------|------------|------------|------------|-----------| 


e. guitar 1 
|-----------|------------|------------|------------|------------|-----------| 
|-----------|------1---0-|------------|------1---0-|------------|-----------| 
|-----------|------------|-2--------2-|------------|-2--------2-|-----------| 
|-----------|-0----------|-----3--4---|-0----------|-----3--4---|-----------| 
|---2--3--4-|------------|------------|------------|------------|-----------| 
|-----------|------------|------------|------------|------------|-----------| 
 
 e. guitar 2 
|-----------|------------|------------|------------|------------|-----------| 
|----------5|/7----7-----|----------5-|/7----7-----|----------5-|/7----7----| 
|----------5|/7----5-----|----------5-|/7----5-----|----------5-|/7----5----| 
|----------5|/7----7-----|----------5-|/7----7-----|----------5-|/7----7----| 
|-----------|------------|------------|------------|------------|-----------| 
|-----------|------------|------------|------------|------------|-----------| 

[ Tab from: http://www.guitartabs.cc/tabs/b/beatles/run_for_your_life_tab.html ]
[solo]   
 
e. guitar 1 
|---|----15|b(17)-b(17)15-13-15-13------|-------15|b(17)(17)-b(17)15-13-----| 
|---|------|----------------------15-13-|15-15----|--------------------15-13| 
|---|------|----------------------------|---------|-------------------------| 
|---|------|----------------------------|---------|-------------------------| 
|---|------|----------------------------|---------|-------------------------| 
|---|------|----------------------------|---------|-------------------------| 
 
 e. guitar 2 
|---|------|----------------------------|---------|-------------------------| 
|-5-|/7--7-|--------------------------5-|/7-7-----|-----------------------10| 
|-5-|/7--5-|--------------------------5-|/7-5-----|-----------------------10| 
|-5-|/7--7-|--------------------------5-|/7-7-----|-----------------------10| 
|---|------|----------------------------|---------|-------------------------| 
|---|------|----------------------------|---------|-------------------------| 
 
 
 
 
 
e. guitar 1 
|----------|-----12------------------|------------|----------------------| 
|15--15--15|b(17)---b(17)15-13----13-|15---15-----|-----10---------------| 
|----------|-------------------15----|----------12|b(14)---b(14)12-10----| 
|----------|-------------------------|------------|-------------------12-| 
|----------|-------------------------|------------|----------------------| 
|----------|-------------------------|------------|----------------------| 
 
 e. guitar 2 
|----------|----- -------------------|------------|----------------------| 
|/12--12---|-----------------------5-|/7----7-----|-------------------12-| 
|/12--10---|-----------------------5-|/7----5-----|-------------------12-| 
|/12--12---|-----------------------5-|/7----7-----|-------------------12-| 
|----------|-------------------------|------------|----------------------| 
|----------|-------------------------|------------|----------------------| 
 
 
 
 
 
e. guitar 1 


|--------|-----------------------|-----------|----------------------|-------| 
|--------|-----------------------|-----------|-----10---------------|-------| 
|--------|-----------------------|---------12|b(14)---b(14)12-10----|-------| 
|--------|----------12----12-----|12--12-----|-------------------12-|-------| 
|--------|-----10/12----12----12-|-----------|----------------------|-------| 
|--------|-----------------------|-----------|----------------------|-------| 
 
 e. guitar 2 
|--------|-----------------------|-----------|----------------------|-------| 
|/14--14-|---------------------5-|/7---7-----|--------------------5-|/7---7-| 
|/14--12-|---------------------5-|/7---5-----|--------------------5-|/7---5-| 
|/14--14-|---------------------5-|/7---7-----|--------------------5-|/7---7-| 
|--------|-----------------------|-----------|----------------------|-------| 
|--------|-----------------------|-----------|----------------------|-------| 


 e. guitar 1 
|-----------|------------|------------|------------|------------|-----------| 
|-----------|------1---0-|------------|------1---0-|------------|-----------| 
|-----------|------------|-2--------2-|------------|-2--------2-|-----------| 
|-----------|-0----------|-----3--4---|-0----------|-----3--4---|-----------| 
|---2--3--4-|------------|------------|------------|------------|-----------| 
|-----------|------------|------------|------------|------------|-----------| 
 
 e. guitar 2 
|-----------|------------|------------|------------|------------|-----------| 
|----------5|/7----7-----|----------5-|/7----7-----|----------5-|/7----7----| 
|----------5|/7----5-----|----------5-|/7----5-----|----------5-|/7----5----| 
|----------5|/7----7-----|----------5-|/7----7-----|----------5-|/7----7----| 
|-----------|------------|------------|------------|------------|-----------| 
|-----------|------------|------------|------------|------------|-----------| 


e. guitar 1 
|-----------|------------|------------|------------|------------|-----------| 
|-----------|------1---0-|------------|------1---0-|------------|-----------| 
|-----------|------------|-2--------2-|------------|-2--------2-|-----------| 
|-----------|-0----------|-----3--4---|-0----------|-----3--4---|-----------| 
|---2--3--4-|------------|------------|------------|------------|-----------| 
|-----------|------------|------------|------------|------------|-----------| 
 
 e. guitar 2 
|-----------|------------|------------|------------|------------|-----------| 
|----------5|/7----7-----|----------5-|/7----7-----|----------5-|/7----7----| 
|----------5|/7----5-----|----------5-|/7----5-----|----------5-|/7----5----| 
|----------5|/7----7-----|----------5-|/7----7-----|----------5-|/7----7----| 
|-----------|------------|------------|------------|------------|-----------| 
|-----------|------------|------------|------------|------------|-----------| 
 
         (repeat and fade)                                   No No No 
 

transcribed by Chris Sears 
cts@mail.utexas.edu 
 
 

 
 
 
Comments