Beatles - Revolution One Chords & Tabs

 

Revolution One Chords & Tabs

Beatles Chords & Tabs

Version: 2 Type: Tab 0 ratings
1 star 2 stars 3 stars 4 stars 5 stars
comments

Revolution One Tab

Song: Revolution 1
Artist: Beatles (Lennon/McCartney)
Album: Beatles (white album)
Tabbed by: Brendan McDowell

Intro:
John
e:4/55555555------|
B:4/55555555------|
G:----------------|
D:----------------|  3x
A:----------------|
E:----------------|
George
e:----------------------------------------------------|
B:----------------------------------------------------|
G:----------------------------------------------------|
D:2-2-4-4-2-2-4-4-2-2-4-4-2-2-4-4-2-7-7-7-------------|
A:0-0-0-0-0-0-0-0-0-0-0-0-0-0-0-0-0-5-5-5-------------|
E:----------------------------------------------------|

verse
John and George
e:-----------------------------------------------------------------------------------|
B:-----------------------------------------------------------------------------------|
G:--------------------------------2-2-4-4-2-4-4-2-2-2-4-4-2-4-4-2--------------------|
D:2-2-4-4-2-2-4-4-2-2-4-4-2-2-4-4-0-0-0-0-0-0-0-0-0-0-0-0-0-0-0-0--------------------|
A:0-0-0-0-0-0-0-0-0-0-0-0-0-0-0-0----------------------------------------------------|
E:-----------------------------------------------------------------------------------|


e:----------------------------------------|
B:----------------------------------------|
G:----------------------------------------|
D:----------------------------------------|
A:2-2-4-4-2-4-4-2-2-2-4-4-2-4-4-2---------|
E:0-0-0-0-0-0-0-0-0-0-0-0-0-0-0-0---------|
[ Tab from: http://www.guitartabs.cc/tabs/b/beatles/revolution_one_tab_ver_2.html ]
Bridge
e:-------------------------------------------------------------|
B:-------------------------------------------------------------|
G:4----------------------4-------------------------------------|
D:4-let-ring-2-----------4let-ring--5-7-4-4-4-4-2-2-2-2--------|
A:2----------2let-ring---2----------5-7-4-4-4-4-2-2-2-2--------|
E:-----------0----------------------3-5-2-2-2-2-0-0-0-0--------|

Chorus
John
e:----------------------------------------------|
B:----------------------------------------------|
G:----------------------2-2-4-4-2-2-4-4---------|
D:2-2-4-4-2-2-4-4--0-0-0-0-0-0-0-0    repeat----| 2x
A:0-0-0-0-0-0-0-0-------------------------------|
E:----------------------------------------------|

e:----------------------|
B:----------------------|
G:----------------------|
D:----------------------|
A:2-2-4-4-2-2-4-4-------|
E:0-0-0-0-0-0-0-0-------|

George
e:-------------------------------------------------------------------------------------------------------|
B:-------------------------------------------------------------------------------------------------------|
G:--------7----------------7-----9-----------------------------------------------------------------------|
D:7-------7---------7------7-----9-------------0--------------2---------0-------2-------0----------------|
A:7-------5---------7------5-----7-------0h2-----------0h2---------0h2----0h2-----0h2--------------------|
E:5-----------------5----------------0-0------------0----------0------------------------------1/9p0------|

Order:
Intro
Verse
Brigde
Chorus
Verse
Bridge
Chorus
Verse
Brigde
Chorus
Comments