Beatles - Revolution Chords & Tabs

 

Revolution Chords & Tabs

Beatles Chords & Tabs

Version: 2 Type: Bass Tab 0 ratings
1 star 2 stars 3 stars 4 stars 5 stars
comments

Revolution Bass Tab

Verse 1

You say you want a revolution...

G|------------------------------|------------------------------|------------------------------|
D|------------------------------|----------6-9-6-9-----6-9-6-9-|------------------------------|
A|------6-9-6-9-----6-9-6-9-----|-----6-7------------7---------|------6-9-6-9------6-9-6-9----|
E|---7------------7-------------|---7--------------------------|---7------------7-------------|


G|------------------------------|------------------------------|------------------------------|
D|------------------------------|----------6-9-6-9-----6-9-6-9-|-----8-11-8-11-----8-11-8-11--|
A|------6-9-6-9-----6-9-6-9-----|-----6-7------------7---------|---9-------------9------------|
E|---7------------7-------------|---7--------------------------|------------------------------|

Bridge:

But when you talk about...

G|------------------------------|------------------------------|------------------------|
D|------------------------------|------------------------------|------------------------|
A|---3-----------5--------------|---3------------3---1---------|------------------------|
E|------------------------------|------------------------------|---7-7-7-7----5-5-5-5---|


Chorus:

Don't you know it's gonna be...

G|------------------------|------------------------|------------------------|-----------------------|
D|------------------------|------------------------|------------------------|-----------------------|
A|------------------------|---7-7-7-7----7-7-7-7---|------------------------|---7-7-7-7----7-7-7-7--|
E|---7-7-7-7----7-7-7-7---|------------------------|---7-7-7-7----7-7-7-7---|-----------------------|


G|------------------------|------------------------|
D|------------------------|------------------------|
A|------------------------|---7-7-7-7----7-7-7-7---|
E|---7-7-7-7----7-7-7-7---|------------------------|



Verse 2

You say you've got a real solution...

G|------------------------------|------------------------------|------------------------------|
D|------------------------------|----------6-9-6-9-----6-9-6-9-|------------------------------|
A|------6-9-6-9-----6-9-6-9-----|-----6-7------------7---------|------6-9-6-9------6-9-6-9----|
E|---7------------7-------------|---7--------------------------|---7------------7-------------|


G|------------------------------|------------------------------|------------------------------|
D|------------------------------|----------6-9-6-9-----6-9-6-9-|-----8-11-8-11-----8-11-8-11--|
A|------6-9-6-9-----6-9-6-9-----|-----6-7------------7---------|---9-------------9------------|
E|---7------------7-------------|---7--------------------------|------------------------------|


Bridge:

But when you want money for people...

G|------------------------------|------------------------------|------------------------|
D|------------------------------|------------------------------|------------------------|
A|---3-----------5--------------|---3------------3---1---------|------------------------|
E|------------------------------|------------------------------|---7-7-7-7----5-5-5-5---|


Chorus:

Don't you know it's gonna be...
[ Tab from: http://www.guitartabs.cc/tabs/b/beatles/revolution_btab_ver_2.html ]
G|------------------------|------------------------|------------------------|-----------------------|
D|------------------------|------------------------|------------------------|-----------------------|
A|------------------------|---7-7-7-7----7-7-7-7---|------------------------|---7-7-7-7----7-7-7-7--|
E|---7-7-7-7----7-7-7-7---|------------------------|---7-7-7-7----7-7-7-7---|-----------------------|


G|------------------------|------------------------|
D|------------------------|------------------------|
A|------------------------|---7-7-7-7----7-7-7-7---|
E|---7-7-7-7----7-7-7-7---|------------------------|




Guitar Solo: same as chorus


Verse 3

You say you'll change the constitution...

G|------------------------------|------------------------------|------------------------------|
D|------------------------------|----------6-9-6-9-----6-9-6-9-|------------------------------|
A|------6-9-6-9-----6-9-6-9-----|-----6-7------------7---------|------6-9-6-9------6-9-6-9----|
E|---7------------7-------------|---7--------------------------|---7------------7-------------|


G|------------------------------|------------------------------|------------------------------|
D|------------------------------|----------6-9-6-9-----6-9-6-9-|-----8-11-8-11-----8-11-8-11--|
A|------6-9-6-9-----6-9-6-9-----|-----6-7------------7---------|---9-------------9------------|
E|---7------------7-------------|---7--------------------------|------------------------------|


Bridge:

But if you go carrying pictures of...

G|------------------------------|------------------------------|------------------------|
D|------------------------------|------------------------------|------------------------|
A|---3-----------5--------------|---3------------3---1---------|------------------------|
E|------------------------------|------------------------------|---7-7-7-7----5-5-5-5---|













Chorus:

Don't you know it's gonna be...

G|------------------------|------------------------|------------------------|-----------------------|
D|------------------------|------------------------|------------------------|-----------------------|
A|------------------------|---7-7-7-7----7-7-7-7---|------------------------|---7-7-7-7----7-7-7-7--|
E|---7-7-7-7----7-7-7-7---|------------------------|---7-7-7-7----7-7-7-7---|-----------------------|


G|------------------------|------------------------|
D|------------------------|------------------------|
A|------------------------|---7-7-7-7----7-7-7-7---|
E|---7-7-7-7----7-7-7-7---|------------------------|

Ending:

G|------------------------|------------------------|------------------------|-----------------------|
D|------------------------|------------------------|------------------------|-----------------------|
A|------------------------|---7-7-7-7----7-7-7-7---|------------------------|---7-7-7-7----7-7-7-7--|
E|---7-7-7-7----7-7-7-7---|------------------------|---7-7-7-7----7-7-7-7---|-----------------------|


G|------------------------|------------------------|------------------------|-----------------------|
D|------------------------|------------------------|------------------------|-----------------------|
A|------------------------|---7-7-7-7----7-7-7-7---|------------------------|---7---3-1-------------|
E|---7-7-7-7----7-7-7-7---|------------------------|---7-7-7-7----7-7-7-7---|-----------------------|
Comments