Beatles - Real Love Chords & Tabs

 

Real Love Chords & Tabs

Beatles Chords & Tabs

Version: 5 Type: Tab 0 ratings
1 star 2 stars 3 stars 4 stars 5 stars
comments

Real Love Tab

   
                           The Beatles
                            Real Love

           Capo on 2nd Freet (Optional)

  Chords:                                      Note:

                                          If you play the song with the capo
  Dm*:x57787                              on the 2nd freet usa a capo in the 
   A*:577877                              lead guitar.
    D:xx0232
Dmaj7:x04222
   Bm:x24432
 Ddim:x03221
    G:320003
   Em:022000
    A:x02220
   Gm:355333
 Gm+7:x54333
    B:x24442

          Intro

   Please read the chords first

Chords: Guitar 1 Hapsichord Theme:Guitar 2

    Dm*         A*
    E---5-------5-6-5--5-3-5-------------|
    B---6---6-8-----5--------------------|
    G---7-----------6--------------------| Play X2
    D------------------------------------|
    A------------------------------------|
    E------------------------------------|

Guitar 1

 D                       Dmaj7
ALL MY LITTLE PLANS AND SCHEMES,
Bm                             Ddim
LOST LIKE SOME FORGOTTEN DREAMS,
G                             Em   A
SEEMS THAT ALL I REALLY WAS DOING
                 D  Gm  D Gm  or D G D G
WAS WAITING FOR YOU.

the D Gm sounds like the original version of john lennon and the D G sounds like the 
of anthology.

Guitar 1

D                          Dmaj7
JUST LIKE LITTLE GIRLS AND BOYS,

Guitar 2
E-------------------------------------|
B--7--10-8-7-10-----------------------|
G-------------------------------------|
D-------------------------------------|
A-------------------------------------|
E-------------------------------------|

Guitar 1

Bm                           Ddim
PLAYING WITH THEIR LITTLE TOYS.

Guitar 2

E---------------------------------|
B--6-10-8-6-6---------------------|
G---------------------------------|
D---------------------------------|
A---------------------------------|
E---------------------------------|

G                                 Em   A
SEEMS LIKE ALL THEY REALLY WERE DOING
                 D    Gm D Gm or D G D G
WAS WAITING FOR LOVE.

Guitar 1

D                 Gm
DONT NEED TO BE ALONE,

E-----------------------------------------------|
B---3-3-1-1-------------------------------------|
G-----------3-3-2-2-----------------------------|
D-----------------------------------------------|
A-----------------------------------------------|
E-----------------------------------------------|

Guitar 1

D               Gm+7
NO NEED TO BE ALONE.

Guitar 2

E-------------------------------------------------|
B-------------------------------------------------|
G----3-3-2-2-0-0----------------------------------|
D----------------4-4------------------------------|
D-------------------------------------------------|
A-------------------------------------------------|
E-------------------------------------------------|

     Bm   G         A    D
 ITS REAL LOVE, ITS REAL...
        Bm   G
YES ITS REAL LOVE, ITS REAL.

Intro x 2


D                      Dmaj7
 FROM THIS MOMENT ON I KNOW

E----------------------------------------------|
B----------------------------------------------|
G----------------------------------------------|
D------4/7/9/4---------------------------------|
A----------------------------------------------|
E----------------------------------------------|
 Bm                         Ddim
EXACTLY WHERE MY LIFE WILL GO.

E-----------------------------------------------|
B-----------------------------------------------|
G-----------------------------------------------|
D-3/7/9/4---------------------------------------|
A-----------------------------------------------|
E-----------------------------------------------|
[ Tab from: http://www.guitartabs.cc/tabs/b/beatles/real_love_tab_ver_5.html ]
G                            Em       A
SEEMS THAT ALL I REALLY WAS DOING
                  D G D G or D Gm D Gm
WAS WAITING FOR LOVE.


D                Gm
DONT NEED TO BE AFRAID,

E---------------------------------------------------|
B--13Br15-11-13--11--13-13b15-----------------------|
G---------------------------------------------------|
D---------------------------------------------------|
A---------------------------------------------------|
E---------------------------------------------------|


D               Gm+7
NO NEED TO BE AFRAID.

E--15br17--13-15-17----------------------|
B----------------------------------------|
G----------------------------------------|
D----------------------------------------|
A----------------------------------------|
E----------------------------------------|


D     Bm   G         A
 ITS REAL LOVE, ITS REAL.
D         Bm   G         A
 YES ITS REAL LOVE, ITS REAL.

Solo

   Em                            B                               Em
E--------------10------------------------------------------12----------|
B-----8-10b12--12--12b10--8-8-10----10-12-12b13-12b13-12---12-12-15b17-|
G---9----------------------------11------------------------------------|
D----------------------------------------------------------------------|
A----------------------------------------------------------------------|
E----------------------------------------------------------------------|
                                A7sus4
E----15br17-12--------12/13/12-----17-----19-17br19----17----19--17br19-|
B-17------------15b17-----------15----15------------14----14------------|
G-----------------------------------------------------------------------|
D-----------------------------------------------------------------------|
A-----------------------------------------------------------------------|
E-----------------------------------------------------------------------|


Guitar 1

D                        Dmaj7
THOUGHT ID BEEN IN LOVE BEFORE,

Guitar 2

E----------------------------------------------|
B----------------------------------------------|
G----------------------------------------------|
D------4/7/9/4---------------------------------|
A----------------------------------------------|
E----------------------------------------------|

Guitar 1

         Bm             Ddim
BUT IN MY HEART, I WANTED MORE.

Guitar 2

E-----------------------------------------------|
B-----------------------------------------------|
G-----------------------------------------------|
D-3/7/9/4---------------------------------------|
A-----------------------------------------------|
E-----------------------------------------------|


Guitar 1

G                             Em     A
SEEMS LIKE ALL I REALLY WAS DOING
                 D  G  D  G or D Gm D Gm
WAS WAITING FOR YOU.

Guitar 1

D               Gm
DONT NEED TO BE ALONE,

Guitar 2

E-------------------------------------------|
B-------------------------------------------|
G-------------------------------------------|
D----3--------------------------------------|
A--5---5--3br4-1-3/5------------------------|
D-------------------------------------------|
E-------------------------------------------|


Guitar 1
               Gm+7
DONT NEED TO BE ALONE.

Guitar 2

E------------3------------------------------|
B-------------------------------------------|
G------------------------7br6---------------|
D-----3-5b7----5br7--3-5--------------------|
A---5---------------------------------------|
D-------------------------------------------|
E-------------------------------------------|


Guitar 1


D    Bm   G         A     D
ITS REAL LOVE, ITS REAL...   YES
    Bm    G         A     D
ITS REAL LOVE, ITS REAL...   YES
         Bm   G         A
YES ITS REAL LOVE, ITS REAL...

Repeat and Fade

    Enjoy :)
Comments