Beatles - Rain Chords & Tabs

 

Rain Chords & Tabs

Beatles Chords & Tabs

Version: 2 Type: Tab

Rain Tab

   
Intro
   G
e--------------------------------------------------|
b--------------3-----------------------------------|
g--4-----4---------4----(4)----4------4------------|
d--5---5---5---------5----(5)--5---5-----5---5-----|
A--5---------------------------5-------------5-----|
E--------------------------------------------------|


Verse 1
        G                C       D
e-------------------------------------------|
b-----------------------(5)------3----------|
g-------4----4-----------5------------5-----|
d-------5--5---5-(5)-----5---5--------------|
A-------5-----------------------------------|
E-------------------------------------------|
 If the rain comes they run and hide their

 G          C         D       G
e-------------------------------------------------|
b----------------------3--------------------------|
g-4-(4)--4----5----4-------5---4------4-----------|
d-5------5----5----5-----------5-(5)--5-----------|
A-------------------------------------------------|
E-------------------------------------------------|
 heads, they might as well be dead

     C                     G
e----------------------------------------------|
b----------------------------------------------|
g----4--5--5-----5--5--5---4--4--4--4--4--4----|
d-5--5--5--5--5--5--5------5--5--5--5--5--5----|
A-----------------------------------------5----|
E----------------------------------------------|
 If the rain comes; if the raaain comes.


Verse 2/3/4
          G                C         D       G
e------------------------------------------------------|
b---------------------------------------3--------------|
g-----------------------------5-------------5---4------|
d------------5--5-----5--5----5----5------------5--5-5-|
A----------------------------------------------(5)-----|
E------------------------------------------------------|
 2. When the sun shines, they slip in - to the shade
 3. I  can show  you  that  when it starts to rain
 4. Can you hear me that    when it rains and shines

    C         D       G
e--------------------------------------|
b----------------3---------------------|
g--------5--5---------5----4-----------|
d--5-5---5--5--------------5--5--------|
A--------------------------------------|
E--------------------------------------|
   and sip their lem-on-ade
  ev' - ry - thing's the same
  it's just a state of mind
[ Tab from: http://www.guitartabs.cc/tabs/b/beatles/rain_tab_ver_2.html ]
          C                    G
e---------------------------------------------------|
b---------------------------------------------------|
g--4--4-----5--5-----5--5-(5)--4-4-4-4-4------------|
d--5--5--5--5--5--5--5--5------5-5-5-5-5--5(~)------|
A---------------------------------------------------|
E---------------------------------------------------|
 When the sun shines; When the suuun shines
 I  can  show  you;      I can shooow you
 Can you hear   me;    Can you heeear  me?


Bridge
   G                    C9                   G
e--3----3----3----3-----3---3---3---3--------------|
b--3----3----3----3-----3---3---3---3--------------|
g--4----4----4----4-----5---5---5---5--------4~----|
d--5----5----5----5-----5---5---5---5--------5~----|
A--5----5----5----5-----3---3---3---3--------------|
E--3----3----3----3--------------------------------|
   Ra-haha-haha-hahaha-hain         I don't mind.

   G
e------------------------------------------|
b-----------3------------------------------|
g-----4---------4--------------------------|
d--5-----5---------5-----------------------|
A------------------------------------------|
E------------------------------------------|


   G                    C9                   G
e--3----3----3----3-----3---3---3---3-----------|
b--3----3----3----3-----3---3---3---3-----------|
g--4----4----4----4-----5---5---5---5--------4--|
d--5----5----5----5-----5---5---5---5--------5--|
A--5----5----5----5-----3---3---3---3-----------|
E--3----3----3----3-----------------------------|
  Shi-hihi-hihi-hihihi-hine   The weather's fine.

   G
e----------------------------------------------|
b----------------3-----------------------------|
g-----4-----4--4----4--------------------------|
d--5-----5--5--5-------5-----------------------|
A----------------------------------------------|
E----------------------------------------------|


Backwards Part
   G
e--------------------------------|
b--3-------------------3---------|
g--4----------------4-----4------|
d--5--5----5--5--5----------5-5--|
A----------------5----------5----|
E--------------------------------|


e-------------------------------------------------------------|
b-------------3----------------------3--------------------3---|
g----------4-----4----------------4-----4-----------4--5----4-|
d--5-5--5----------5--5--5-5--5------------5--5--5------------|
A-------5-------------5-------5--------------5----------------|
E-------------------------------------------------------------|
     Sdea reith die dna nur heyth smoc nair heth fi.

e--------------------------------------------------|
b---------------3-------------------------3--------|
g---------4--5-----4-------------------4-----4-----|
d--5--5---------------5--5--5-5--5--5-----------5--|
A--5---------------------5-------5-----------------|
E--------------------------------------------------|
               Nay-hayhayhay-hayhay-hayhay-hair.

e--------------------------------------------|
b----------------3---------------------------|
g-------------4-----4-----4------------------|
d--5--5-5--5-----------5--5------------------|f a d e  o u t
A--5-------------------5--5------------------|
E--------------------------------------------|
     Sniesh  nuuus heth newh.


The running order is as follows:

Intro
Verse 1
Verse 2
Bridge
Verse 3
Bridge
Verse 4
Backwards Part.