Beatles - Polythene Pam Chords & Tabs

 

Polythene Pam Chords & Tabs

Beatles Chords & Tabs

Version: 2 Type: Tab 0 ratings
1 star 2 stars 3 stars 4 stars 5 stars
comments

Polythene Pam Tab

   
Band: The Beatles
Song: Polythene Pam
Album: Abbey Road
Tabber: clark@theoddmenout.com


*unless otherwise noted, Guitar 1 plays chords noted above tab*


Intro: x2

Guitar 1
 (D/E)   (A)    (E)
e--2------0------0----|
B--3------2------0----|
G--2------2------1----|
D--0------2------2----|
A--0------0------2----|
E--0-------------0----|

Guitar 2
e----------------------------------|
B----------------------------------|
G----------------------------9\----|
D---------------------7-/9-9-9\----|
A----------------------------------|
E----------------------------------|


Verse 1:
                   (D)  (A)      (E)
e-----------------------------------------------|
B--------------------------------------9-\7-/9--|
G--------------------------------------9-\7-/9--|
D--------------------------------------9-\7-/9--|
A-----------------------------------------------|
E-----------------------------------------------|
  "Well, you should see Polythene Pam"

                (D)              (A)          (E)
e-----------------------------------------------------------|
B--------------------------------------------------9-\7-/9--|
G--------------------------------------------------9-\7-/9--|
D--------------------------------------------------9-\7-/9--|
A-----------------------------------------------------------|
E-----------------------------------------------------------|
  "She's so good-looking, but she looks like a man"

                  G                               B
"Well, you should see her in drag, dressed in her polythene bag"

                (C)   (D)       (E)
e-------------------------------------------------|
B---------------------------------------------9\--|
G--------------------------------------7/9-9--9\--|
D--------------------------------------7/9-9--9\--|
A-------------------------------------------------|
E-------------------------------------------------|
  "Yes you should see Polythene Pam"

   (C)   (D)   (E)
e---------------------------------|
B----------------------7/9-9--9\--|
G----------------------7/9-9--9\--|
D----------------------7/9-9--9\--|
A---------------------------------|
E---------------------------------|
  "Yeah, yeah, yeah!"


Intro x2


Verse 2:
        (D)             (A)         (E)
e-----------------------------------------------------|
B--------------------------------------------/9---/9--|
G--------------------------------------------/9---/9--|
D--------------------------------------------/9---/9--|
A-----------------------------------------------------|
E-----------------------------------------------------|
  "Get a dose of her in jackboots and kilt"
[ Tab from: http://www.guitartabs.cc/tabs/b/beatles/polythene_pam_tab_ver_2.html ]
               (D)               (A)            (E)
e-------------------------------------------------------------------|
B-------------------------------------------------------7/9---9--\--|
G-------------------------------------------------------7/9---9--\--|
D-------------------------------------------------------------------|
A-------------------------------------------------------------------|
E-------------------------------------------------------------------|
  "She's killer diller when she's dressed to the hilt"

           G                             B
"She's the kind of a girl that makes the News of the World"

                  (C)           (D)       (E)
e-------------------------------------------------------------|
B--------------------------------------------------7/9-9--9\--|
G--------------------------------------------------7/9-9--9\--|
D--------------------------------------------------7/9-9--9\--|
A-------------------------------------------------------------|
E-------------------------------------------------------------|
  "Yes, you could say she was attractively built"

  (C)    (D)   (E)
e--------------------------------|
B---------------------7--/9--9\--|
G---------------------7--/9--9\--|
D--------------------------------|
A--------------------------------|
E--------------------------------|
  "Yeah, yeah, yeah"


Intro x2


Solo:
  (D) (A) (E)  
e---------------------------------------------------------------|
B---------------------------8b10-----8h10p8------------8--8b10--|
G----------------------7-9------------------9v------9-----------|
D-----------------7-/9------------------------------------------|
A---------------------------------------------------------------|
E---------------------------------------------------------------|

e-------------------------------------------------------|
B--b10r8p5---------------8-8b10----b10r8-p5----7---7-9--|
G----------9--9------7-9--------------------9----9------|
D-------------------------------------------------------|
A-------------------------------------------------------|
E-------------------------------------------------------|

e------------------------12-----------------------------------|
B--8-12b13-12--12p10-------------8-10-10b12--10-b12--r10p8----|
G--------------------12------------------------------------9--|
D-------------------------------------------------------------|
A-------------------------------------------------------------|
E-------------------------------------------------------------|

e--------------------------------------------------------------|
B--8-10-10b12--b12r10p8-8---------8--10b12--r10p8---8-8b10--8--|
G------------------------------9------------------9------------|
D--------------------------------------------------------------|
A--------------------------------------------------------------|
E--------------------------------------------------------------|

e--------------------------------------------------------------------------|
B--8--10b12-10b12-10b12r10p8-------------------------------8-10b12r10p8----|
G----------------------------9---7-----------------------------------------|
D----------------------------------9-7----------------------------------7--|
A--------------------------------------10--7---5---4---2-------------------|
E--------------------------------------------------------------------------|
                                           ^(She Came in Through...)



That's it!  For suggestions, corrections, and requests, email me:
                         oddmenout4@yahoo.com
Comments