Beatles - Polythene Pam Chords & Tabs

 

Polythene Pam Chords & Tabs

Beatles Chords & Tabs

Version: 1 Type: Tab 0 ratings
1 star 2 stars 3 stars 4 stars 5 stars
comments

Polythene Pam Tab

   
Tabbed by Dan Mooney

All of the below is my own work.  
All tab below was transcribed through my ears only.



Legend
h          = hammer-on
p          = pull-off
/          = slide up
10b(11)    = bend up to note in parentheses      
(11)r10    = reverse bent note in parentheses to original note
10b(12)r10 = bend to note in parentheses and 
             reverse to orginal note all in one pick of string

POLYTHENE PAM- THE BEATLES
The basic chords for the song are D, A, E.

And that's the basic chord structure of the entire song for acoustic.


Now let's get to the electric!

Here is the solo to Polythene Pam:

e--------------------------------------------------
B----------8-8/10--8h10p8--------8-8/10--10p8-----8
G-----7h9------------------9--9----------------9---
D--9-----------------------------------------------
A--------------------------------------------------
E--------------------------------------------------
[ Tab from: http://www.guitartabs.cc/tabs/b/beatles/polythene_pam_tab.html ]
e--------------------------------------------------
B------8-10-10p8---8-------8--8-10/12-12-12-12p10-8
G--7-9-----------9---9-7/9-------------------------
D--------------------------------------------------
A--------------------------------------------------
E--------------------------------------------------

e--12----------------------------------------------
B---------8-10-10b(11)--(11)r10--8h10p8------8-10--
G-------9-------------------------------9--9-------
D--------------------------------------------------
A--------------------------------------------------
E--------------------------------------------------

e--------------------------------------------------
B--10b(12)r10--8------8-10b(12)r10 10b(11)r10--8---
G----------------9--9----------------------------9-
D--------------------------------------------------
A--------------------------------------------------
E--------------------------------------------------

e--------------------------------------
B--8------8-10-10-10p8-----------------
G----9--9--------------9-7--9-7--------
D-------------------------------9-7----
A-----------------------------------7-5
E--------------------------------------

Any Suggestions? E-mail me at Moonwho78@yahoo.com
Comments