Beatles - Penny Lane Chords & Tabs

 

Penny Lane Chords & Tabs

Beatles Chords & Tabs

Version: 1 Type: Tab 0 ratings
1 star 2 stars 3 stars 4 stars 5 stars
comments

Penny Lane Tab

   
  ------------------------------------------------------------------

  THE BEATLES - PENNY LANE (Lennon & McCartney) Released as a double
                A side single with STRAWBERRY FIELDS FOREVER on 17th
                February 1967.

  ------------------------------------------------------------------

  Tabbed by:PJVillanueva


  In Penny Lane there is a barber showing photographs
  Of every head he's had the pleasure to know
  And all the people that come and go
  Stop and say hello.

  On the corner is a banker with a motorcar,
  The little children laugh at him behind his back.
  And the banker never wears a mack
  In the pouring rain, very strange.

  Penny Lane is in my ears and in my eyes.
  There beneath the blue suburban skies
  I sit, and meanwhile back

  In Penny Lane there is a fireman with an hourglass
  And in his pocket is a portrait of the Queen.
  He likes to keep his fire engine clean,
  It's a clean machine.

                 SOLO

  Penny Lane is in my ears and in my eyes.
  A four of fish and finger pies
  In summer, meanwhile back

  Behind the shelter in the middle of a roundabout
  The pretty nurse is selling poppies from a tray
  And tho' she feels as if she's in a play
  She is anyway.

  In Penny Lane the barber shaves another customer,
  We see the banker sitting waiting for a trim
  And then the fireman rushes in
  From the pouring rain, very strange.

  Penny lane is in my ears and in my eyes.
  There beneath the blue suburban skies
  I sit, and meanwhile back.

  Penny lane is in my ears and in my eyes.
  There beneath the blue suburban skies,
  Penny Lane.


   The original piano part was recorded in B Major, but it is
   much easier using a capo on the second fret and playing it
   in A, which will then sound as the original in B and give
   us the chance to play the walking bass lines, which would
   be impossible otherwise (mind that you are not playing the
   complete bass part) I've tabbed the rest without a capo to
   avoid any fretting confusion.

                                                       In Penny
                                                               Lane

  A       A/Ab    F#m7    A/E     D6(no3)         E7sus4  E7
e|------- ------- ------- -------|------- ------- ------- -------|
B|2-------2-------2-------2------|0-------0-------0-------0------|
G|2-------2-------2-------2------|2-------2-------2-------1------|
D|2-------2-------2-------2------|0-------0-------0-------0------|
A|0------------------------------|--------2----------------------|
E|--------4-------2-------0------|----------------0-------0----4-|
       there a  barber    showing                      of every
          is                   photographs                     head
            A


  A       A/Ab    F#m7    A/E     Am
e|------- ------- ------- -------|0------ 0------ 0------ 0------|
B|2-------2-------2-------2------|1-------1-------1-------1------|
G|2-------2-------2-------2------|2-------2-------2-------2------|
D|2-------2-------2-------2------|2-------2-------2-------2------|
A|0------------------------------|0------------------------------|
E|--------4-------2-------0------|-------------------------------|
       he's    the        to   know                    and     the
          had     pleasure                                all


  Am6                             Fmaj7
e|0------ 0------ 0------ 0------|0------ 0------ 0------ 0------|
B|1-------1-------1-------1------|1-------1-------1-------1------|
G|2-------2-------2-------2------|2-------2-------2-------2------|
D|2-------2-------2-------2------|2-------2-------2-------2------|
A|-------------------------------|-------------------------------|
E|2------------------------------|1------------------------------|
  people  that    come         go                      stop    say
                       and                                 and


  E7sus4          E7              E7sus4          E7
e|0------ 0------ 0------ 0------|0------ 0------ 0------ 0------|
B|0-------0-------0-------0------|0-------0-------0-------0------|
G|2-------2-------1-------1------|2-------2-------1-------1------|
D|0-------0-------0-------0------|0-------0-------0-------0------|
A|-------------------------------|-------------------------------|
E|0-------0-------0-------0------|0-------0-------0-------0------|
       hello                                              On   the
e|------- ------- ------- -------|------- ------- ------- -------|
B|---------------------------1214|151214-------------------------|
G|-------------------------------|-------------------------------|
D|-------------------------------|-------------------------------|
A|-------------------------------|-------------------------------|
E|-------------------------------|-------------------------------|


  00:17

e|------- ------- ------- -------|------- ------- ------- -------|
B|2-------2-------2-------2------|0-------0-------0-------0------|
G|2-------2-------2-------2------|2-------2-------2-------1------|
D|2-------2-------2-------2------|0-------0-------0-------0------|
A|0------------------------------|--------2----------------------|
E|--------4-------2-------0------|----------------0-------0------|

e|11----- 11----- 11----- 11-----|-9----- -9----- -9----- -9-----|
B|12------12------12------12-----|12------12------12------11-----|
G|11------11------11------11-----|11------11------11------11-----|
D|-------------------------------|-------------------------------|
A|-------------------------------|-------------------------------|
E|-------------------------------|-------------------------------|
  corner  is   banker     with motorcar                   little
             A               A                         The     children

e|------- ------- ------- -------|0------ 0------ 0------ 0------|
B|2-------2-------2-------2------|1-------1-------1-------1------|
G|2-------2-------2-------2------|2-------2-------2-------2------|
D|2-------2-------2-------2------|2-------2-------2-------2------|
A|0------------------------------|0------------------------------|
E|--------4-------2-------0------|-------------------------------|

e|11----- 11----- 11----- 11-----|------- ------- ------- -------|
B|12------11-------9-------9-----|-------------------------------|
G|11------11------11------11-----|-------------------------------|
D|-------------------------------|-------------------------------|
A|-------------------------------|-------------------------------|
E|-------------------------------|-------------------------------|

e|------- ------- ------- -------|------- ------- ------- -------|
B|-------------------------------|12-~---------------------------|
G|-------------------------------|-------------------------------|
D|-------------------------------|-------------------------------|
A|-------------------------------|-------------------------------|
E|-------------------------------|-------------------------------|
          laugh        behind  his  back                   And the
           at
               him


e|0------ 0------ 0------ 0------|0------ 0------ 0------ 0------|
B|1-------1-------1-------1------|1-------1-------1-------1------|
G|2-------2-------2-------2------|2-------2-------2-------2------|
D|2-------2-------2-------2------|2-------2-------2-------2------|
A|-------------------------------|-------------------------------|
E|2------------------------------|1------------------------------|
  banker  never   wears   a    mack                    in the  pouring

                                                 (.

e|0------ 0------ 0------ 0------|2------ 2------ 2------ -------|
B|0-------0-------0-------0------|3-------3-------3--------------|
G|2-------2-------1-------1------|2-------2-------1--------------|
D|0-------0-------0-------0------|0---------------0--------------|
A|-------------------------------|--------0----------------------|
E|0-------0-------0-------0------|-------------------------------|
          rain                    very strange.           Penny
                                                               Lane

  00:34
  G5                              G
e|------- ------- ------- -------|------- ------- ------- -------|
B|3-------3-------3-------3------|3-------3-------3-------3------|
G|0-------0-------0-------0------|0-------0-------0-------0------|
D|0-------0-------0-------0------|0-------0-------0-------0------|
A|-------------------------------|2------------2----------0----2-|
E|3------------3-------3---------|---------------------3---------|
               is in   my      ears            and     my      eyes.
                                                  in


  Csus2                           Cadd9
e|------- ------- ------- -------|------- ------- ------- -------|
B|1-------1-------1-------1------|3-------3-------3-------3------|
G|0-------0-------0-------0------|0-------0-------0-------0------|
D|---------------------0--2----3-|2-------2-------2-------2------|
A|3------------3-----------------|3-----------------------3------|
E|-------------------------------|------------3-------3----------|

e|5------ ------- ------- -------|------- ------- ------- -------|
B|7------------8-------7-------5-|-------------8-------7---------|
G|-------------9-------7-------4-|7------------7-------7-------7-|
D|-------------------------------|7------------9-------9-------9-|
A|-------------------------------|-------------------------------|
E|-------------------------------|-------------------------------|



  G5                              G
e|------- ------- ------- -------|------- ------- ------- -------|
B|3-------3-------3-------3------|3-------3-------3-------3------|
G|0-------0-------0-------0------|0-------0-------0-------0------|
D|0-------0-------0-------0------|0-------0-------0-------0------|
A|---------------------0--2------|2------------2--2----3---------|
E|3------------3--3--------------|-------------------------------|

e|------- ------- ------- -------|------- ------- ------- -------|
B|5------------------------------|-------------------------------|
G|6------------------------------|-------------------------------|
D|7------------------------------|-------------------------------|
A|-------------------------------|-------------------------------|
E|-------------------------------|-------------------------------|
  There        beneath the     blue            suburban        skies

                                                 (.
  Csus2                           E
e|------- ------- ------- -------|------- ------- ------- -------|
B|3-------3-------3-------3------|0-------0-------0--------------|
G|0-------0-------0-------0------|1-------1-------1--------------|
D|2-------2-------2-------2------|2-------2-------2--------------|
A|3------------3----------3------|2------------------------------|
E|---------------------3---------|--------4-------0--------------|
          I       sit     and     meanwhile       back In Penny
                                                               Lane

  00:51

e|------- ------- ------- -------|------- ------- ------- -------|
B|2-------2-------2-------2------|0-------0-------0-------0------|
G|2-------2-------2-------2------|2-------2-------2-------1------|
D|2-------2-------2-------2------|0-------0-------0-------0------|
A|0------------------------------|--------2----------------------|
E|--------4-------2-------0------|----------------0-------0------|

e|------- ------- ------- -------|------- ------- ------- -------|
B|12-----------------------------|-------------------------------|
G|-------------------------------|-------------------------------|
D|-------------------------------|-------------------------------|
A|-------------------------------|-------------------------------|
E|-------------------------------|-------------------------------|
       there   fireman    with hourglass               and   his
          is                 an                           in   pocket
            A

e|------- ------- ------- -------|0------ 0------ 0------ 0------|
B|2-------2-------2-------2------|1-------1-------1-------1------|
G|2-------2-------2-------2------|2-------2-------2-------2------|
D|2-------2-------2-------2------|2-------2-------2-------2------|
A|0------------------------------|0------------------------------|
E|--------4-------2-------0------|-------------------------------|

e|------- ------- ------- -------|-----14 ---12-- ------- -------|
B|12-----------------------------|----------------15-------------|
G|-------------------------------|-------------------------------|
D|-------------------------------|-------------------------------|
A|-------------------------------|-------------------------------|
E|-------------------------------|-------------------------------|
          is a portrait   of   Queen                   He likes
                            the                                to


e|0------ 0------ 0------ 0------|0------ 0------ 0------ 0------|
B|1-------1-------1-------1------|1-------1-------1-------1------|
G|2-------2-------2-------2------|2-------2-------2-------2------|
D|2-------2-------2-------2------|2-------2-------2-------2------|
A|-------------------------------|-------------------------------|
E|2------------------------------|1------------------------------|

e|------- ------- ------- -------|------- ------- ------- -------|
B|-------------------------------|-----12----14---15-------------|
G|-------------------------------|-------------------------------|
D|-------------------------------|-------------------------------|
A|-------------------------------|-------------------------------|
E|-------------------------------|-------------------------------|
  keep his        engine       clean                      it's clean
          fire                                               A


e|0------ 0------ 0------ 0------|0------ 0------ 0------ 0------|
B|0-------0-------0-------0------|0-------0-------0-------0------|
G|2-------2-------1-------1------|2-------2-------1-------1------|
D|0-------0-------0-------0------|0-------0-------0-------0------|
A|-------------------------------|-------------------------------|
E|0-------0-------0-------0------|0-------0-------0-------0------|

e|------- ------- ------- -------|------- ------- ------4 ---4--6|
B|-------------------------------|--------4--5----5--7-----------|
G|----------------------3----3--4|6----6-------------------------|
D|----------------4--6-----------|-------------------------------|
A|-------------------------------|-------------------------------|
E|-------------------------------|-------------------------------|
     machine


  SOLO
  01:08

e|------- ------- ------- -------|------- ------- ------- -------|
B|2-------2-------2-------2------|0-------0-------0-------0------|
G|2-------2-------2-------2------|2-------2-------2-------1------|
D|2-------2-------2-------2------|0-------0-------0-------0------|
A|0------------------------------|--------2----------------------|
E|--------4-------2-------0------|----------------0-------0------|

e|------- ------- ------- -------|------- ------- ------6 ------6|
B|-------------------------------|----------------7--9----7--9---|
G|--------8-----------68---68--68|9--68-9-6--8--9----------------|
D|-------------------9----9------|-------------------------------|
A|-------------------------------|-------------------------------|
E|-------------------------------|-------------------------------|


e|------- ------- ------- -------|0------ 0------ 0------ 0------|
B|2-------2-------2-------2------|1-------1-------1-------1------|
G|2-------2-------2-------2------|2-------2-------2-------2------|
D|2-------2-------2-------2------|2-------2-------2-------2------|
A|0------------------------------|0------------------------------|
E|--------4-------2-------0------|-------------------------------|

e|7----79 7------ ------- -------|------- ------- ---10-- -------|
B|---------------------------7--9|10-------------------10-7-----7|
G|---------------------68-9------|---------------------------7---|
D|--------------------9----------|-------------------------------|
A|-------------------------------|-------------------------------|
E|-------------------------------|-------------------------------|

  Am6                             Fmaj7
e|0------ 0------ 0------ 0------|0------ 0------ 0------ 0------|
B|1-------1-------1-------1------|1-------1-------1-------1------|
G|2-------2-------2-------2------|2-------2-------2-------2------|
D|2-------2-------2-------2------|2-------2-------2-------2------|
A|-------------------------------|-------------------------------|
E|2------------------------------|1------------------------------|

e|------- 10----- -101010 101010-|10----- ------- ------- -------|
B|-------------------------------|-------------------------------|
G|7------------------------------|-------------------------------|
D|-------------------------------|-------------------------------|
A|-------------------------------|-------------------------------|
E|-------------------------------|-------------------------------|

  E7sus4          E7              D
e|0------ 0------ 0------ 0------|------- ------- ------- -------|
B|0-------0-------0-------0------|3----0-------------------------|
G|2-------2-------1-------1------|2-------2----------------------|
D|0-------0-------0-------0------|0-------0----4--0--------------|
A|-------------------------------|----------------0--------------|
E|0------------0--------0--------|-------------------------------|

e|----7-9 10-7-9- ------- -------|------- ------- 12----- -------|
B|-------------------------------|--------9----12----------------|
G|-------------------------------|---9-------9-------------------|
D|-------------------------------|9-----9------------------------|
A|-------------------------------|-------------------------------|
E|-------------------------------|-------------------------------|
                                                          Penny
                                                               Lane

  01:25

e|------- ------- ------- -------|------- ------- ------- -------|
B|3-------3-------3-------3------|3-------3-------3-------3------|
G|0-------0-------0-------0------|0-------0-------0-------0------|
D|0-------0-------0-------0------|0-------0-------0-------0------|
A|-------------------------------|2------------2----------0----2-|
E|3------------3-------3---------|---------------------3---------|
               is in   my      ears            and     my      eyes.
                                                  in

[ Tab from: http://www.guitartabs.cc/tabs/b/beatles/penny_lane_tab.html ]
e|3------ 3------ 3------ 3------|3------ 3------ 3------ 3------|
B|1-------1-------1-------1------|1-------1-------1-------1------|
G|0-------0-------0-------0------|0-------0-------0-------0------|
D|---------------------0--2----3-|2-------2-------2-------0------|
A|3-------3-------3--------------|3-------3-------3-------3----3-|
E|-------------------------------|-------------------------------|

e|5------ ------- ------- -------|------- ------- ------- -------|
B|7------------8-------7-------5-|-------------8-------7---------|
G|-------------9-------7-------4-|7------------7-------7-------7-|
D|-------------------------------|7------------9-------9-------9-|
A|-------------------------------|-------------------------------|
E|-------------------------------|-------------------------------|


e|------- ------- ------- -------|------- ------- ------- -------|
B|3-------3-------3-------3------|3-------3---------------3------|
G|0-------0----0--0-------0------|0-------0----0----------0------|
D|0-------0-------0-------0------|0----0--0---------------0------|
A|-----2-------------------------|2-------2-------2-------2------|
E|3---------------3-------3------|-------------------------------|

e|------- ------- ------- -------|------- ------- ------- -------|
B|5------------------------------|-------------------------------|
G|6------------------------------|-------------------------------|
D|7------------------------------|-------------------------------|
A|-------------------------------|-------------------------------|
E|-------------------------------|-------------------------------|
                  Four of fish         and     finger          pies

e|------- ------- ------- -------|------- ------- ------- -------|
B|1-------1---------------1------|0-------0-------0--------------|
G|0-------0----0----------0------|1-------1-------1--------------|
D|2----2----------2-------2------|2-------2-------2--------------|
A|3---------------3-------3------|2------------------------------|
E|-------------------------------|--------4-------0--------------|
          in      summer          Meanwhile       back Behind  the


  01:42

e|------- ------- ------- -------|------- ------- ------- -------|
B|2-------2-------2-------2------|0-------0-------0-------0------|
G|2-------2-------2-------2------|2-------2-------2-------1------|
D|2-------2-------2-------2------|0-------0-------0-------0------|
A|0------------------------------|--------2----------------------|
E|--------4-------2-------0------|----------------0-------0------|

e|7------ ------- 7------ -------|------- ------- 7------ -------|
B|--------7---------------7------|7-------7---------------7-----7|
G|-------------------------------|-------------------------------|
D|-------------------------------|-------------------------------|
A|-------------------------------|-------------------------------|
E|-------------------------------|-------------------------------|
  shelter in   the     of      the                     the     nurse
                  middle          roundabout              pretty

e|------- ------- ------- -------|0------ 0------ 0------ 0------|
B|2-------2-------2-------2------|1-------1-------1-------1------|
G|2-------2-------2-------2------|2-------2-------2-------2------|
D|2-------2-------2-------2------|2-------2-------2-------2------|
A|0------------------------------|0------------------------------|
E|--------4-------2-------0------|-------------------------------|

e|------- ------- ------- -------|------- 7------ ------- -------|
B|7-------7-------7-------7------|7---------------7-------7------|
G|-------------------------------|-------------------------------|
D|-------------------------------|-------------------------------|
A|-------------------------------|-------------------------------|
E|-------------------------------|-------------------------------|
       is selling         from tray                    and     she
               poppies        a                           though


e|0------ 0------ 0------ 0------|0------ 0------ 0------ 0------|
B|1-------1-------1-------1------|1-------1-------1-------1------|
G|2-------2-------2-------2------|2-------2-------2-------2------|
D|2-------2-------2-------2------|2-------2-------2-------2------|
A|-------------------------------|-------------------------------|
E|2------------------------------|1------------------------------|

e|------- 7------ ------- -------|------- 7------ ------- -------|
B|7---------------7-------7------|7---------------7-------7------|
G|-------------------------------|-------------------------------|
D|-------------------------------|-------------------------------|
A|-------------------------------|-------------------------------|
E|-------------------------------|-------------------------------|
  feels   if   she's   a       play                    She     anyway.
       as         in                                      is


e|0------ 0------ 0------ 0------|0------ 0------ 0------ 0------|
B|0-------0-------0-------0------|0-------0-------0-------0------|
G|2-------2-------1-------1------|2-------2-------1-------1------|
D|0-------0-------0-------0------|0-------0-------0-------0------|
A|-------------------------------|-------------------------------|
E|0------------0-------0---------|0------------0-----------------|

e|14----- ------- ------- -------|------- ------- ------- -------|
B|-------------------------------|-------------------------------|
G|-------------------------------|-------------------------------|
D|-------------------------------|-------------------------------|
A|-------------------------------|-------------------------------|
E|-------------------------------|-------------------------------|
                                                      In  Penny
                                                               Lane

  01:59

e|------- ------- ------- -------|------- ------- ------- -------|
B|2-------2-------2-------2------|0-------0----------------------|
G|2-------2-------2-------2------|2-------2-------1-------1------|
D|2-------2-------2-------2------|0-------0-------2-------2------|
A|0------------------------------|--------2-----------2--------2-|
E|--------4-------2-------0------|----------------0-------0------|

e|7------ ------- 7------ -------|------- ------- ------- -------|
B|--------7---------------7------|7-------7---------------7------|
G|-------------------------------|-------------------------------|
D|-------------------------------|-------------------------------|
A|-------------------------------|-------------------------------|
E|-------------------------------|-------------------------------|
       the        shaves       customer               We  see  the
          barber       another


e|------- ------- ------- -------|0------ 0------ 0------ 0------|
B|2-------2-------2-------2------|1-------1-------1-------1------|
G|2-------2-------2-------2------|2-------2-------2-------2------|
D|2-------2-------2-------2------|2-------2-------2-------2------|
A|0------------------------------|0------------------------------|
E|--------4-------2-------0------|-------------------------------|

e|------- ------- 7------ -------|------- 7------ ------- -------|
B|7-------7---------------7------|------------------------7------|
G|-------------------------------|-------------------------------|
D|-------------------------------|-------------------------------|
A|-------------------------------|-------------------------------|
E|-------------------------------|-------------------------------|
  banker  sitting         for  trim                    And     the
               waiting        a                           then


e|0------ 0------ 0------ 0------|0------ 0------ 0------ 0------|
B|1-------1-------1-------1------|1-------1-------1-------1------|
G|2-------2-------2-------2------|2-------2-------2-------2------|
D|2-------2-------2-------2------|2-------2-------2-------2------|
A|-------------------------------|-------------------------------|
E|2------------------------------|1-------1-------1-------1------|

e|------- 7------ ------- -------|------- 7------ ------- 7------|
B|--------7---------------7------|--------7---------------7------|
G|-------------------------------|-------------------------------|
D|-------------------------------|-------------------------------|
A|-------------------------------|-------------------------------|
E|-------------------------------|-------------------------------|
  fireman         rushes       in                      from    pouring
                                                          the


e|------- ------- ------- -------|------- ------- ------- -------|
B|0-------0-------0-------0------|3----0-------------------------|
G|2-------2-------1-------1------|2-------2----------------------|
D|2-------2-------2-------2------|0-------0----4--0--------------|
A|--------------2----------------|----------------0--------------|
E|0-------0-------0-------0------|-------------------------------|
          rain                    Very strange            Penny
                                                               Lane

  02:15
  G5                              G
e|------- ------- ------- -------|------- ------- ------- -------|
B|3-------3-------3-------3------|3-------3-------3-------3------|
G|0-------0-------0-------0------|0-------0-------0-------0------|
D|0-------0-------0-------0------|0-------0-------0-------0------|
A|-------------------------------|2------------2--2-------0----2-|
E|3------------3--3----3--3----3-|---------------------3---------|

e|------- ------- ------- -------|------- ------- ------- -------|
B|-------------------------------|-------------------------------|
G|9------------9-----------------|9------------9-----------------|
D|7------------7-----------------|7------------7-----------------|
A|-------------------------------|-------------------------------|
E|-------------------------------|-------------------------------|
               is in   my      ears            and     my      eyes.
                                                  in

  Cadd9
e|------- ------- ------- -------|------- ------- ------- -------|
B|3-------3-------3--------------|3-------3-------3-------3------|
G|0-------0-------0--------------|0-------0-------0-------0------|
D|2-------2-------2--------------|2-------2-------2-------2------|
A|3------------3----------0----2-|3-------3-------3-------3------|
E|---------------------3---------|-----3-------3-------3---------|

e|------- ------- ------- -------|------- ------- ------- -------|
B|-------------------------------|-------------------------------|
G|9------------9-----------------|9------------9-----------------|
D|7------------7-----------------|7------------7-----------------|
A|-------------------------------|-------------------------------|
E|-------------------------------|-------------------------------|

e|------- ------- ------- -------|------- ------- ------- -------|
B|--------7-------9-------10-----|----------------7--------------|
G|9------------------------------|7-------9----------------------|
D|-------------------------------|-------------------------------|
A|-------------------------------|-------------------------------|
E|-------------------------------|-------------------------------|

  G5                              G
e|------- ------- ------- -------|------- ------- ------- -------|
B|3-------3-------3-------3------|3-------3-------3-------3------|
G|0-------0-------0-------0------|0-------0----0--0-------0------|
D|0-------0-------0-------0------|0----0--0-------0-------0------|
A|-----2-------------------------|2-------2--- ---2-------2------|
E|3------------3-----------------|-------------------------------|

e|------- ------- ------- -------|------- ------- ------- -------|
B|-------------------------------|-------------------------------|
G|9------------9-----------------|9------------9-----------------|
D|7------------7-----------------|7------------7-----------------|
A|-------------------------------|-------------------------------|
E|-------------------------------|-------------------------------|
  There        beneath the     blue            suburban        skies


  C                               E
e|------- ------- ------- -------|------- ------- ------- -------|
B|1-------1-------1-------1------|0-------0-------0--------------|
G|0-------0-------0-------0------|1-------1-------1--------------|
D|2-------2-------2-------2------|2-------2-------2--------------|
A|3-------3-------3-------3------|-----2-------2-----------------|
E|-------------------------------|--------4-------0--------------|

e|------- ------- ------- -------|------- ------- ------- -------|
B|-------------------------------|-------------------------------|
G|9------------9-----------------|6-------6-------6--------------|
D|7------------7-----------------|8-------8-------8--------------|
A|-------------------------------|-------------------------------|
E|-------------------------------|-------------------------------|

e|------- ------- ------- -------|------- ------- ------- 111214-|
B|-------------------------------|-------------------------------|
G|-------------------------------|-------------------------------|
D|-------------------------------|-------------------------------|
A|-------------------------------|-------------------------------|
E|-------------------------------|-------------------------------|
          I       sit     and     meanwhile       back    Penny
                                                               Lane


  02:32
  A
e|------- ------- ------- -------|------- ------- ------- -------|
B|2-------2-------2-------2------|5-------5-------5-------5------|
G|2-------2-------2-------2------|2-------2-------2-------2------|
D|2-------2-------2-------2------|2-------2-------2-------2------|
A|0------------0--0-------0------|4------------4--4----0--4------|
E|---------------------0---------|-------------------------------|

e|------- -----12 11---12 -----14|------- -----12 11----- -------|
B|-------------------------------|---------------------14------12|
G|-------------------------------|-------------------------------|
D|-------------------------------|-------------------------------|
A|-------------------------------|-------------------------------|
E|-------------------------------|-------------------------------|
               is in   my      ears            and     my      eyes.
                                                  in

  D
e|2------ 2------ 2------ 2------|2------ 2------ 2------ 2------|
B|3-------3-------3-------3------|3-------3-------3-------3------|
G|2-------2-------2-------2------|2-------2----0--2-------2------|
D|0-------0-------0-------0------|0----2--4------------2--0------|
A|-------------0---------------0-|-------------------------------|
E|-------------------------------|-------------------------------|

e|------- ------- ------- -------|------- ------- ------- -------|
B|....---------------------------|-------------------------------|
G|-------------------------------|-------------------------------|
D|-------------------------------|-------------------------------|
A|-------------------------------|-------------------------------|
E|-------------------------------|-------------------------------|

e|------- ------- ------- -------|------9 1112--- ------- -------|
B|---------7-9-10-12-1211-12-----|----12-----1210-9---9-8-9-8-9--|
G|----9-8-9----------------------|-------------------------------|
D|-------------------------------|-------------------------------|
A|-------------------------------|-------------------------------|
E|-------------------------------|-------------------------------|

  A
e|------- ------- ------- -------|------- ------- ------- -------|
B|2-------2-------2-------2------|5-------5-------5-------5------|
G|2-------2-------2-------2------|2-------2-------2-------2------|
D|2-------2-------2-------2------|2-------2-------2-------2------|
A|0------------0--0-------0----0-|4------------4--4----0--4----0-|
E|---------------------0---------|-------------------------------|

e|14----- -----12 11---12 -----14|------- -----12 11----- -------|
B|-------------------------------|---------------------14------12|
G|-------------------------------|-------------------------------|
D|-------------------------------|-------------------------------|
A|-------------------------------|-------------------------------|
E|-------------------------------|-------------------------------|

e|------- ------- ------- -------|------- ------- ------- -------|
B|7------------------------------|-------------------------------|
G|-------------------------------|-------------------------------|
D|-------------------------------|-------------------------------|
A|-------------------------------|-------------------------------|
E|-------------------------------|-------------------------------|
  There        beneath the     blue            suburban        skies


  D
e|2------ 2------ 2------ 2------|2------ 2------ 2------ 2------|
B|3-------3-------3-------3------|3-------3-------3-------3------|
G|2-------2-------2-------2----0-|2-------2-------2-------2------|
D|0------------0--0----2--4------|-------------------------------|
A|-------------------------------|0-------0-------0----0---------|
E|-------------------------------|------------------------2------|

e|------- ------- ------- -------|------- ------- ------- -------|
B|....---------------------------|-------------------------------|
G|-------------------------------|-------------------------------|
D|-------------------------------|-------------------------------|
A|-------------------------------|-------------------------------|
E|-------------------------------|-------------------------------|

e|------- 9------ 11--12- -------|------- ------- ------- -------|
B|12----------------------12--10-|9------------------------------|
G|-------------------------------|-------------------------------|
D|-------------------------------|-------------------------------|
A|-------------------------------|-------------------------------|
E|-------------------------------|-------------------------------|
                                                  Penny
                                                       Lane


 (.
  A
e|------- ------- ------- -------|------- ------- ------- -------|
B|2------------------------------|-------------------------------|
G|2------------------------------|-------------------------------|
D|2------------------------------|-------------------------------|
A|0------------------------------|-------------------------------|
E|-------------------------------|-------------------------------|




        B  Bend
        R  Release
        /  Slide up
        \  Slide down
        H  Hammer-on
        P  Pull-off
        ~  Vibrato
        +  Harmonic
        x  Mute note
        .  Play note like a dot in standard notation
        ^  Ties two notes together
        (. Pause
Comments