Beatles - Penny Lane Chords & Tabs

 

Penny Lane Chords & Tabs

Beatles Chords & Tabs

Version: 5 Type: Bass Tab 0 ratings
1 star 2 stars 3 stars 4 stars 5 stars
comments

Penny Lane Bass Tab

* = Pause

Be sure to listen to the song before you play! It will make it much easier!



G|--------------------16------16--|16------15------13------11------|
D|----------------16------16------|--------------------------------|
A|--------------------------------|--------------------------------|
E|--------------------------------|--------------------------------|
  ^       ^       ^       ^        ^       ^       ^       ^  

G|9---------------11------11------|--------------------------------|
D|--------11------------------8---|9-------8-------6-------4-------|
A|--------------------------------|--------------------------------|
E|--------------------------------|--------------------------------|
  ^       ^       ^       ^        ^       ^       ^       ^  

G|--------------------------------|--------------------------------|
D|--------------------------------|6*------------------------------|
A|2*------------------------------|--------------------------------|
E|--------------------------------|--------------------------------|
  ^       ^       ^       ^        ^       ^       ^       ^ 

G|--------------------------------|--------------------------------|
D|5*------------------------------|4---------------4-----4---------|
A|--------------------------------|-------------------4------------|
E|--------------------------------|--------------------------------|
  ^       ^       ^       ^        ^       ^       ^       ^ 

G|--------------------------------|--------------------------------|
D|4---------------4-----4---------|9-------8-------6-------4-------|
A|-------------------4------------|--------------------------------|
E|--------------------------------|--------------------------------|
  ^       ^       ^       ^        ^       ^       ^       ^ 

G|----------------------------3---|4-------3-----------------------|
D|2---------------4-------4-------|----------------6-------4-------|
A|--------4-----------------------|--------------------------------|
E|--------------------------------|--------------------------------|
  ^       ^       ^       ^        ^       ^       ^       ^ 

G|--------------------------------|--------------------------------|
D|9*------------------------------|6*------------------------------|
A|--------------------------------|--------------------------------|
E|--------------------------------|--------------------------------|
  ^       ^       ^       ^        ^       ^       ^       ^ 

G|--------------------------------|------------6-------------------|
D|5*------------------------------|4-------4-------4-------4-------|
A|--------------------------------|----------------------------4---|
E|--------------------------------|--------------------------------|
  ^       ^       ^       ^        ^       ^       ^       ^ 

G|--------------------------------|--------------------------------|
D|2-------------------------------|--------------------------------|
A|----4---2-----------------------|--------------------------------|
E|------------4---0---------------|5-----------5---5---0---5-------|
  ^       ^       ^       ^        ^       ^       ^       ^ 

G|--------------------------------|--------------------------------|
D|--------------------------------|------------------------4---6---|
A|4-----------4---4-------2---4---|5-----------5---5---7-----------|
E|--------------------5-----------|--------------------------------|
  ^       ^       ^       ^        ^       ^       ^       ^ 

G|--------------------------------|--------------------------------|
D|7-----------7---7---7-----------|--------------------------------|
A|------------------------5-------|------------------------4-------|
E|--------------------------------|5-----------5---5---7-------5---|
  ^       ^       ^       ^        ^       ^       ^       ^ 

G|--------------------------------|--------------------------------|
D|--------------------------------|--------------------------------|
A|4-----------4---4---5---7---4---|5-----------5---5-------5-------|
E|--------------------------------|--------------------5-----------|
  ^       ^       ^       ^        ^       ^       ^       ^ 

G|--------------------------------|--------------------------------|
D|--------------------------------|9-------8-------6-------4-------|
A|4-------1-----------------------|--------------------------------|
E|----------------2---------------|--------------------------------|
  ^       ^       ^       ^        ^       ^       ^       ^ 

G|----------------------------3---|4-------3-----------------------|
D|2---------------4-------4-------|----------------6-------4-------|
A|--------4-----------------------|--------------------------------|
E|--------------------------------|--------------------------------|
  ^       ^       ^       ^        ^       ^       ^       ^ 

G|--------------------------------|--------------------------------|
D|9*------------------------------|6*------------------------------|
A|--------------------------------|--------------------------------|
E|--------------------------------|--------------------------------|
  ^       ^       ^       ^        ^       ^       ^       ^ 

G|--------------------------------|--------------------------------|
D|5*------------------------------|4-----------4---4-------4-------|
A|--------------------------------|--------------------4-----------|
E|--------------------------------|--------------------------------|
  ^       ^       ^       ^        ^       ^       ^       ^ 

G|--------------------------------|--------------------------------|
D|4-----------4---4-------4-------|9-------8-------6-------4-------|
A|--------------------4-----------|----------------------------6---|
E|--------------------------------|--------------------------------|
  ^       ^       ^       ^        ^       ^       ^       ^ 

G|--------------------------------|--------------------------------|
D|2---------------4-------4-------|9-------8-------6-------4-------|
A|--------4-----------------------|--------------------------------|
E|--------------------------------|--------------------------------|
  ^       ^       ^       ^        ^       ^       ^       ^

G|--------------------------------|--------------------------------|
D|9-------9-------9-------9-------|6-------6-------6-------6-------|
A|------------9---------------9---|--------------------------------|
E|--------------------------------|--------------------------------|
  ^       ^       ^       ^        ^       ^       ^       ^  

G|--------------------------------|--------------------------------|
D|5-------5-------5-------5---5---|4-------4-------4-------4-------|
A|--------------------------------|------------4-------------------|
E|--------------------------------|--------------------------------|
  ^       ^       ^       ^        ^       ^       ^       ^

G|--------------------------------|
D|2-------------------------------|
A|----4---2-----------------------|
E|------------4---0---------------|
  ^       ^       ^       ^         
[ Tab from: http://www.guitartabs.cc/tabs/b/beatles/penny_lane_btab_ver_5.html ]
G|--------------------------------|--------------------------------|
D|--------------------------------|--------------------------------|
A|--------------------------------|4-----------4---4-------2---4---|
E|5-----------5---5---0---5-------|--------------------5-----------|
  ^       ^       ^       ^        ^       ^       ^       ^ 

G|--------------------------------|--------------------------------|
D|------------------------4---6---|7-----------7---7---7-----------|
A|5-----------5---5---7-----------|------------------------5-------|
E|--------------------------------|--------------------------------|
  ^       ^       ^       ^        ^       ^       ^       ^

G|--------------------------------|--------------------------------|
D|------------7*------------------|--------7---7*------------------|
A|----4---7-----------------------|4---7---------------------------|
E|5-------------------------------|--------------------------------|
  ^       ^       ^       ^        ^       ^       ^       ^  

G|--------------------------------|--------------------------------|
D|--------7---7*------------------|--------------------------------|
A|5---7---------------------------|4-------1-----------------------|
E|--------------------------------|----------------2---------------|
  ^       ^       ^       ^        ^       ^       ^       ^ 

G|--------------------------------|----------------------------3---|
D|9-------8-------6-------4-------|2---------------4-------4-------|
A|--------------------------------|--------4-----------------------|
E|--------------------------------|--------------------------------|
  ^       ^       ^       ^        ^       ^       ^       ^ 

G|4-------3-----------------------|--------------------------------|
D|----------------6-------4-------|9*------------------------------|
A|--------------------------------|--------------------------------|
E|--------------------------------|--------------------------------|
  ^       ^       ^       ^        ^       ^       ^       ^ 

G|--------------------------------|--------------------------------|
D|6*------------------------------|5*------------------------------|
A|--------------------------------|--------------------------------|
E|--------------------------------|--------------------------------|
  ^       ^       ^       ^        ^       ^       ^       ^ 

G|--------------------------------|--------------------------------|
D|4-----------4---4-------4-------|4-----------4---4-------4-------|
A|--------------------4-----------|--------------------4-----------|
E|--------------------------------|--------------------------------|
  ^       ^       ^       ^        ^       ^       ^       ^ 

G|--------------------------------|----------------------------3---|
D|9-------8-------6-------4-------|2---------------4-------4-------|
A|--------------------------------|--------4-----------------------|
E|--------------------------------|--------------------------------|
  ^       ^       ^       ^        ^       ^       ^       ^ 

G|4-------3-----------------------|--------------------------------|
D|----------------6-------4-------|--------------------------------|
A|--------------------------------|2*------------------------------|
E|--------------------------------|--------------------------------|
  ^       ^       ^       ^        ^       ^       ^       ^ 

G|--------------------------------|--------------------------------|
D|6*------------------------------|5-------5-------5-------5-------|
A|--------------------------------|--------------------------------|
E|--------------------------------|--------------------------------|
  ^       ^       ^       ^        ^       ^       ^       ^ 

G|------------6-------------------|--------------------------------|
D|4-------4-------4-------4-------|2-------------------------------|
A|----------------------------4---|----4---2-----------------------|
E|--------------------------------|------------4---0---------------|
  ^       ^       ^       ^        ^       ^       ^       ^ 

G|--------------------------------|--------------------------------|
D|--------------------------------|--------------------------------|
A|--------------------------------|4-----------4---4-------2---4---|
E|5-----------5---5---0---5-------|--------------------5-----------|
  ^       ^       ^       ^        ^       ^       ^       ^ 

G|--------------------------------|--------------------------------|
D|------------------------4---6---|--------------------------------|
A|5-----------5---5---7-----------|5--------5------5-------5-------|
E|--------------------------------|---------------------5------5---|
  ^       ^       ^       ^        ^       ^       ^       ^ 

G|--------------------------------|--------------------------------|
D|------------7*------------------|--------7---7*------------------|
A|----4---7-----------------------|4---7---------------------------|
E|5-------------------------------|--------------------------------|
  ^       ^       ^       ^        ^       ^       ^       ^ 

G|--------------------------------|----6---3---6-------------------|
D|--------7---7*------------------|4---------------4---------------|
A|5---7---------------------------|--------------------------------|
E|--------------------------------|--------------------------------|
  ^       ^       ^       ^        ^       ^       ^       ^ 

G|--------------------------------|--------------------------------|
D|9-----------9---9-------9-------|--------------------------------|
A|--------------------9-----------|6-----------6---6-------6-------|
E|--------------------------------|--------------------7-------7---|
  ^       ^       ^       ^        ^       ^       ^       ^ 

G|--------------------------------|--------------------------------|
D|--------------------------------|--------6---8---9---------------|
A|7---------------7---------------|7---9---------------9---7-------|
E|------------7---------------7---|--------------------------------|
  ^       ^       ^       ^        ^       ^       ^       ^ 

G|--------------------------------|--------------------------------|
D|--------------------------------|--------------------------------|
A|--------------------------------|6-----------6---6-------6-------|
E|7-----------7---7---7---7-------|--------------------7-------7---|
  ^       ^       ^       ^        ^       ^       ^       ^ 

G|--------------------------------|--------------------------------|
D|----------------------------8---|9*--------------9---------------|
A|7-----------7---7---9-----------|------------------------9/------|
E|--------------------------------|--------------------------------|
  ^       ^       ^       ^        ^       ^       ^       ^ 

G|--------------------------------|--------------------------------|
D|--------------------------------|--------------------------------|
A|2*------------------------------|--------------------------------|
E|--------------------------------|--------------------------------|
  ^       ^       ^       ^        ^       ^       ^       ^ 
Comments