Beatles - Penny Lane Chords & Tabs

 

Penny Lane Chords & Tabs

Beatles Chords & Tabs

Version: 4 Type: Bass Tab 0 ratings
1 star 2 stars 3 stars 4 stars 5 stars
comments

Penny Lane Bass Tab

Penny Lane
Original released as the 'B' side to Strawberry Fields Forever
Release year 1967
Bassist: James Paul McCartney
Tabbed by bass50611
Note the tuning Down a semitone so you can play along to the
record a little easier.
Would welcome any comments goldenoldie.benson@sky.com
HAVE FUN!

Verse 1:
F#------17-16-14-12-10----12-12-------------------------------------|
C#---17----------------12-------9-10-9-7-5----7---6---5-5-0-5-0-5---|
G#------------------------------------------------------------------|
D#-----------------------------------------8------------------------|
                        Verse 2:
F#------------------------------------------------------------|
C#---5-5-0-5-0-5-0------10-9-7-5-3-5-5---10-9-7-5-----7---6---|
G#--------------------------------5---------------------------|
D#-----------------------------------------------8------------|

F#-------------------------|
C#---5-5-0-5-0-5-0---3-----|
G#--------------------3----|
D#---------------------1---|

Chorus:
F#-------------------------------------------------------------------|
C#-----------------------------5-6-8---8-6-5-------------------------|
G#-------8---5-55----5-6---6-8--------------8------8---5-55----5-6---|
D#---6-66-6-------6-8--------------------------6-66-6-------6-8------|
[ Tab from: http://www.guitartabs.cc/tabs/b/beatles/penny_lane_btab_ver_4.html ]
F#-------------------|
C#-------8----0------|
G#---6-6--6----2-----|
D#---------------3---|

Verse 3:
F#-----------------4------------------------------------------------|
C#-10-9-7-5-3-5-5---10-9-7-5--7---6---5-5-0-5-0-5-0---5-5-0-5-0-5-0-|
G#-----------5------------------------------------------------------|
D#--------------------------8---------------------------------------|

Trumpet Solo 1:
F#------------------------------5-5-0-5-0-5-0----------------------|
C#-10-9-7-5-3-5-5-5--10-9-7-5-5---------------7-7-7-7---6-6-6-6----|
G#-----------5-----------------------------------7-7-7-----6-6-6---|
D#-----------------------------------------------------------------|

F#------------------------------|
C#---5-5-0-5-0-5-0---3-0--------|
G#----------------------3-0-----|
D#--------------------------1---|

Repeat Chorus:

Repeat Verse 3 & 2:

Repeat Chorus:

Outro Chorus:
F#-----------------------------------------------------------|
C#---10-10-10--10-----------------------------7-8-10-8-7-----|
G#-----------10----7-7-7----7---8-8-8-8---8-10----------10---|
D#----------------------8-10---------8-----------------------|

F#--------------------------------------------------------------|
C#---10-10-10--10-----------------------------7-8-10-8-7--------|
G#-----------10----7-7-7----7---8-8-8-8---8-10----------10------|
D#----------------------8-10---------8----------------------8---|
Comments