Beatles - Paperback Writer Chords & Tabs

 

Paperback Writer Chords & Tabs

Beatles Chords & Tabs

Version: 3 Type: Tab 0 ratings
1 star 2 stars 3 stars 4 stars 5 stars
comments

Paperback Writer Tab

Intro/main riff
e|---------------------------------------------------------------------------|
B|---------------------------------------------------------------------------|
G|---------------------------------------------------------------------------|
D|----------3-5---3------------3---------------------------------------------|
A|-----3h5------3---3---3-3h5------------------------------------------------|
E|---3----------------3------------------------------------------------------|

[ Tab from: http://www.guitartabs.cc/tabs/b/beatles/paperback_writer_tab_ver_3.html ]
e|---------------------------------------------------------------------------|
B|---------------------------------------------------------------------------|
G|---------------------------------------------------------------------------|
D|---------------------------------------------------------------------------|
A|-10-12-10--10-10-12-10----5-7-5--5-5-7-5--5-7-5--5---5----7----10---12-----|
E|--8--8--8---8--8--8--8----3-3-3--3-3-3-3--3-3-3--3---3----3-----8----8-----|
     (repeat rythm)         paper backwriteeeer    pa  per  back  wri  teeer
    Dear sir or madam...
    its a dirty story...
    its a thousand pages....
    if you really like it...

e|----------------------------------------------------------------------------|
B|----------------------------------------------------------------------------|
G|----------------------------------------------------------------------------|
D|----------------------------------------------------------------------------|
A|--5-7-5--5-5-7-5------------------------------------------------------------|
E|--3-3-3--3-3-3-3------------------------------------------------------------|
   just keep playing this as the song fades out

   thats pretty much the whole song, you should be able to figure out the rest
from there, like when ever to play the main riff again.
Comments