Beatles - Ooh My Soul Chords & Tabs

 

Ooh My Soul Chords & Tabs

Beatles Chords & Tabs

Version: 2 Type: Bass Tab 0 ratings
1 star 2 stars 3 stars 4 stars 5 stars
comments

Ooh My Soul Bass Tab

OOH! MY SOUL

By Richard Penniman
From The Beatles Live A The BBC

G|---------------------------------|---------------------------------|
D|---------------------------------|---------------------------------|
A|-2-------2-------2-------2-------|-0-------0-------0-------0-------|
E|---------------------------------|---------------------------------|

G|---------------------------------|---------------------------------|
D|---------------------------------|---------------------------------|
A|---------------------------------|---------------------------------|
E|-0-------------------------------|---------------------------------|

VERSE

G|---------------------------------|---------------------------------|
D|---------6-------9-------6---9---|---------6-------9-------6---9---|
A|-7-------------------------------|-7-------------------------------|
E|---------------------------------|---------------------------------|

G|---------------------------------|---------------------------------|
D|---------6-------9-------6---9---|---------------------------------|
A|-7-------------------------------|-7-------5-------4---------------|
E|---------------------------------|-------------------------7-------|

G|---------------------------------|---------------------------------|
D|---------------------------------|---------------------------------|
A|---------4-------7-------4---7---|---------4-------7-------4---7---|
E|-5-------------------------------|-5-------------------------------|

G|---------------------------------|---------------------------------|
D|---------6-------9-------6---9---|---------6-------9-------6---9---|
A|-7-------------------------------|-7-------------------------------|
E|---------------------------------|---------------------------------|

G|---------------------------------|---------------------------------|
D|---------------------------------|---------------------------------|
A|---------6-------9-------6---9---|---------4-------7-------4-------|
E|-7-------------------------------|-5-------------------------------|

G|---------------------------------|---------------------------------|
D|---------------------------------|---------------------------------|
A|-7-------------------------------|---------------------------------|
E|---------------------------------|---------------------------------|

VERSE

G|---------------------------------|---------------------------------|
D|---------------------------------|---------------------------------|
A|-7---7---7---7---7---7---7---7---|-7---7---7---7---7---7---7---7---|
E|---------------------------------|---------------------------------|

G|---------------------------------|---------------------------------|
D|---------------------------------|---------------------------------|
A|-7---7---7---7---7---7---7---7---|-7-------5-------4---------------|
E|---------------------------------|-------------------------7-------|

G|---------------------------------|---------------------------------|
D|---------------------------------|---------------------------------|
A|---------4-------7-------4---7---|---------4-------7-------4-------|
E|-5-------------------------------|-5-------------------------------|

G|---------------------------------|---------------------------------|
D|---------6-------9-------6---9---|---------6-------9-------6-------|
A|-7-------------------------------|-7-------------------------------|
E|---------------------------------|---------------------------------|

G|---------------------------------|---------------------------------|
D|---------------------------------|---------------------------------|
A|---------6-------9-------6---9---|---------4-------7-------4---7---|
E|-7-------------------------------|-5-------------------------------|

G|---------------------------------|---------------------------------|
D|---------------------------------|-9-------9-------9-------9-------|
A|---------------------------------|---------------------------------|
E|-0-------------------------------|---------------------------------|

GUITAR SOLO

G|---------------------------------|---------------------------------|
D|---------6-------9-------6---9---|---------6-------9-------6---9---|
A|-7-------------------------------|-7-------------------------------|
E|---------------------------------|---------------------------------|

G|---------------------------------|---------------------------------|
D|---------6-------9-------6---9---|---------------------------------|
A|-7-------------------------------|-7-------5-------4---------------|
E|---------------------------------|-------------------------7-------|

G|---------------------------------|---------------------------------|
D|---------------------------------|---------------------------------|
A|---------4-------7-------4-------|---------4-------7-------4---7---|
E|-5-------------------------------|-5-------------------------------|

G|---------------------------------|---------------------------------|
D|---------6-------9-------6---9---|---------6-------9-------6---9---|
A|-7-------------------------------|-7-------------------------------|
E|---------------------------------|---------------------------------|
[ Tab from: http://www.guitartabs.cc/tabs/b/beatles/ooh_my_soul_btab_ver_2.html ]
G|---------------------------------|---------------------------------|
D|---------------------------------|---------------------------------|
A|---------6-------9-------6---9---|---------4-------7-------4---7---|
E|-7-------------------------------|-5-------------------------------|

G|---------------------------------|---------------------------------|
D|---------6-------7-------8-------|-9-------9-------9-------9-------|
A|-7-------------------------------|---------------------------------|
E|---------------------------------|---------------------------------|

VERSE

G|---------------------------------|---------------------------------|
D|---------6-------9-------6-------|---------6-------9-------6-------|
A|-7-------------------------------|-7-------------------------------|
E|---------------------------------|---------------------------------|

G|---------------------------------|---------------------------------|
D|---------6-------9-------6-------|---------------------------------|
A|-7-------------------------------|-7-------5-------4---------------|
E|---------------------------------|-------------------------7-------|

G|---------------------------------|---------------------------------|
D|-------------------------4-------|-7-------4-----------------------|
A|---------4-------7---------------|-----------------7-------4-------|
E|-5-------------------------------|---------------------------------|

G|---------------------------------|---------------------------------|
D|---------6-------9-------6---9---|---------6-------9-------6---9---|
A|-7-------------------------------|-7-------------------------------|
E|---------------------------------|---------------------------------|

G|---------------------------------|---------------------------------|
D|---------------------------------|---------------------------------|
A|---------6-------9-------6---9---|---------4-------7-------4---7---|
E|-7-------------------------------|-5-------------------------------|

G|---------------------------------|---------------------------------|
D|---------------------------------|-9---9---9---9---9---9---9---9---|
A|---------------------------------|---------------------------------|
E|-0-------------------------------|---------------------------------|

GUITAR SOLO

G|---------------------------------|---------------------------------|
D|---------6-------7-------8-------|-9-------7-------6---------------|
A|-7-------------------------------|-------------------------9-------|
E|---------------------------------|---------------------------------|

G|---------------------------------|---------------------------------|
D|---------6-------9-------6-------|---------------------------------|
A|-7-------------------------------|-7-------5-------4---------------|
E|---------------------------------|-------------------------7-------|

G|---------------------------------|---------------------------------|
D|-------------------------4-------|-7-------------------------------|
A|---------4-------7---------------|---------7-------4-------7-------|
E|-5-------------------------------|---------------------------------|

G|---------------------------------|---------------------------------|
D|---------6-------9-------6---9---|---------6-------9-------6---9---|
A|-7-------------------------------|-7-------------------------------|
E|---------------------------------|---------------------------------|

G|---------------------------------|---------------------------------|
D|---------------------------------|---------------------------------|
A|---------6-------9-------6---9---|---------4-------5-------6-------|
E|-7-------------------------------|-5-------------------------------|

G|---------------------------------|---------------------------------|
D|---------6-------7-------8-------|-9-------7-------6---------------|
A|-7-------------------------------|-------------------------9-------|
E|---------------------------------|---------------------------------|

VERSE

G|---------------------------------|---------------------------------|
D|---------6-------9-------6-------|---------6-------9-------6-------|
A|-7-------------------------------|-7-------------------------------|
E|---------------------------------|---------------------------------|

G|---------------------------------|---------------------------------|
D|---------6-------9-------6-------|---------------------------------|
A|-7-------------------------------|-7-------5-------4---------------|
E|---------------------------------|-------------------------7-------|

G|---------------------------------|---------------------------------|
D|-------------------------4-------|-7-------4-----------------------|
A|---------4-------7---------------|-----------------7-------4-------|
E|-5-------------------------------|---------------------------------|

G|---------------------------------|---------------------------------|
D|---------6-------9-------6-------|---------------------------------|
A|-7-------------------------------|-7-------7-------5-------4-------|
E|---------------------------------|---------------------------------|

G|---------------------------------|---------------------------------|
D|---------------------------------|---------------------------------|
A|---------6-------9-------6-------|---------4-------7-------4-------|
E|-7-------------------------------|-5-------------------------------|

G|---------------------------------|---------------------------------|
D|---------------------------------|---------------------------------|
A|---------------------------------|---------------------------------|
E|-0-------------------------------|---------------------------------|
Comments