Beatles - One After 909 Chords & Tabs

 

One After 909 Chords & Tabs

Beatles Chords & Tabs

Version: 3 Type: Bass Tab 0 ratings
1 star 2 stars 3 stars 4 stars 5 stars
comments

One After 909 Bass Tab

ONE AFTER 909

INTRO

G|---------------------------------|---------------------------------|
D|-9-------------------------------|---------------------------------|
A|-----------------9---------------|-----------------9---------------|
E|---------------------------------|-7-------------------------------|

G|---------------------------------|---------------------------------|
D|-9-------------------------------|---------------------------------|
A|-----------------9---------------|-----------------9---------------|
E|---------------------------------|-7-------------------------------|

G|---------------------------------|---------------------------------|
D|-9-------------------------------|---------------------------------|
A|-----------------9---------------|-----------------9---------------|
E|---------------------------------|-7-------------------------------|

VERSE

G|---------------------------------|---------------------------------|
D|---------------------------------|---------------------------------|
A|-----------------9---------------|-----------------9---------------|
E|-7-------------------------------|-7-------------------------------|

G|---------------------------------|---------------------------------|
D|---------------------------------|---------------------------------|
A|-----------------9---------------|-----------------9---------------|
E|-7-------------------------------|-7-------------------------------|

G|---------------------------------|---------------------------------|
D|---------------------------------|---------------------------------|
A|-----------------9---------------|-----------------9---------------|
E|-7-------------------------------|-7-------------------------------|

G|---------------------------------|---------------------------------|
D|---------------------------------|---------------------------------|
A|-----------------9---------------|-----------------9---------------|
E|-7-------------------------------|-7-------------------------------|

G|---------------------------------|---------------------------------|
D|---------------------------------|---------------------------------|
A|---------------------------------|---------------------------------|
E|-7-------------------------------|-7-------------------------------|

G|---------------------------------|---------------------------------|
D|---------------------------------|---------------------------------|
A|-7-------------------------------|-7-------------------------------|
E|-----------------7---------------|---------4-------5-------6-------|

G|---------------------------------|---------------------------------|
D|---------------------------------|---------------------------------|
A|-----------------9---------------|-9-----------------------9-------|
E|-7-----------------------7-------|-----------------9---------------|

G|---------------------------------|---------------------------------|
D|---------------------------------|---------------------------------|
A|-----------------9---------------|-----------------9---9-----------|
E|-7-------------------------------|-7---------------------------6---|

VERSE

G|---------------------------------|---------------------------------|
D|---------------------------------|---------------------------------|
A|-----------------9---------------|-----------------9---------------|
E|-7-------------------------------|-7-------------------------------|

G|---------------------------------|---------------------------------|
D|---------------------------------|---------------------------------|
A|-----------------9---------------|-----------------9---------------|
E|-7-------------------------------|-7-------------------------------|

G|---------------------------------|---------------------------------|
D|---------------------------------|---------------------------------|
A|-----------------9---------------|-----------------9---------------|
E|-7-------------------------------|-7-------------------------------|

G|---------------------------------|---------------------------------|
D|---------------------------------|---------------------------------|
A|-----------------9---------------|-----------------9---------------|
E|-7-------------------------------|-7-------------------------------|

G|---------------------------------|---------------------------------|
D|---------------------------------|---------------------------------|
A|---------------------------------|---------------------------------|
E|-7-------------------------------|-7-------------------------------|

G|---------------------------------|---------------------------------|
D|---------------------------------|---------------------------------|
A|-7-------------------------------|-7-------------------------------|
E|-----------------7---------------|---------4-------5-------6-------|

G|---------------------------------|---------------------------------|
D|---------------------------------|---------------------------------|
A|-----------------9---------------|-9-----------------------9-------|
E|-7-----------------------7-------|-----------------9---------------|

G|---------------------------------|---------------------------------|
D|---------------------------------|---------------------------------|
A|-----------------9---------------|-----------------5-------6-------|
E|-7-------------------------------|-7-----7-9-----------------------|

BRIDGE

G|---------------------------------|---------------------------------|
D|---------------------------------|---------------------------------|
A|-7---------------------------6---|-7-------------------------------|
E|-----------------7---------------|---------4-------5-------6-------|

G|---------------------------------|---------------------------------|
D|---------------------------------|---------------------------------|
A|-----------------9---------------|-----------------9---------------|
E|-7-------------------------------|-7-----------------------8-------|

G|---------------------------------|---------------------------------|
D|---------------------------------|---------------------------------|
A|-----------------11--------------|-------------11------------------|
E|-9-------------------------------|-9-------------------8---9-------|

G|---------------------------------|---------------------------------|
D|---------------------------------|---------------------------------|
A|-9-------7-------6-------4-------|-2-------1-----------------------|
E|---------------------------------|-----------------4-------2/------|

G|---------------------------------|---------------------------------|
D|---------------------------------|---------------------------------|
A|-7---------------------------7---|-7-------------------------------|
E|-----------------7---------------|---------4-------5-------6-------|

G|---------------------------------|---------------------------------|
D|---------------------------------|---------------------------------|
A|-----------------9---------------|-------------9-------------------|
E|-7-------------------------------|-7-------------------7---7-------|

G|---------------------------------|---------------------------------|
D|-----------------------------11--|-----11--11----------------------|
A|-----------------11--------------|-----------------11--------------|
E|-9-------------------------------|-------------------------9-------|

G|---------------------------------|---------------------------------|
D|---------------------------------|---------------------------------|
A|-9-----------9-------------------|-9-----------------------9-------|
E|-----------------9-----------9---|-----------------9---------------|

VERSE

G|---------------------------------|---------------------------------|
D|---------------------------------|---------------------------------|
A|-----------------9---------------|-----------------9---------------|
E|-7-------------------------------|-7-------------------------------|

G|---------------------------------|---------------------------------|
D|---------------------------------|---------------------------------|
A|-----------------9---------------|-----------------9---------------|
E|-7---------------------------7---|-7-------------------------------|

G|---------------------------------|---------------------------------|
D|---------------------------------|---------------------------------|
A|-----------------9---------------|-----------------9---------------|
E|-7-------------------------------|-7-------------------------------|
[ Tab from: http://www.guitartabs.cc/tabs/b/beatles/one_after_909_btab_ver_3.html ]
G|---------------------------------|---------------------------------|
D|---------------------------------|---------------------------------|
A|-----------------9---------------|-----------------9---------------|
E|-7-------------------------------|-7-------------------------------|

G|---------------------------------|---------------------------------|
D|---------------------------------|---------------------------------|
A|---------------------------------|---------------------------------|
E|-7-------------------------------|-7-------------------------------|

G|---------------------------------|---------------------------------|
D|---------------------------------|---------------------------------|
A|-7-------------------------------|-7-------------------------------|
E|-----------------7---------------|---------4-------5-------6-------|

G|---------------------------------|---------------------------------|
D|---------------------------------|---------------------------------|
A|-----------------9---------------|-9-----------------------9-------|
E|-7-----------------------7-------|-------------9---9---------------|

G|---------------------------------|---------------------------------|
D|-----------------------------9---|-9---9---7-----------------------|
A|-----------------9---------------|-----------------9-------7-------|
E|-7-------------------------------|---------------------------------|

GUITAR SOLO

G|---------------------------------|---------------------------------|
D|---------------------------------|-9-----------------------7-h-9---|
A|-----------------9-------9-------|-----------------7-h-9-----------|
E|-7-------7-----------------------|---------7-----------------------|

G|---------------------------------|---------------------------------|
D|---------------------------------8/9-------9-----------------------|
A|-----------------9-------9-------|-------------------------7-h-9---|
E|-7-------7-----------------------|-----------------7---------------|

G|---------------------------------|----------------/4---------------|
D|---------------------------------8/9-------9-----9-------7---------|
A|-----------------9-----9-9-------|-------------------------9-------|
E|-7-------7-----------------------|---------------------------------|

G|---------------------------------|---------------------------------|
D|-------------------------7-----9-|-9-----9-7-----7-----------------|
A|-----------------9-----9---------|-----------------9-------7-------|
E|-7-------7-----------------------|---------------------------------|

G|---------------------------------|---------------------------------|
D|---------------------------------|---------------------------------|
A|---------------------------------|---------------------------------|
E|-7-------------------------------|-7-------------------------------|

G|---------------------------------|---------------------------------|
D|---------------------------------|---------------------------------|
A|-7-------------------------------|---------4-------5-------6-/-7---|
E|---------4-------5-------6---6---|-7---7---------------------------|

G|---------------------------------|---------------------------------|
D|---------------------------------|---------------------------------|
A|-----------------9---------------|-9-------------------------------|
E|-7-----------------------7-------|-------------9-------0---8-------|

G|---------------------------------|---------------------------------|
D|---------------------------------|---------------------------------|
A|-----------------9-----------9---|-----------------5-------6-------|
E|-7-------------------------------|-7-------9-----------------------|

BRIDGE

G|---------------------------------|---------------------------------|
D|---------------------------------|---------------------------------|
A|-7---------------------------6---|-7-------------------------------|
E|-----------------7---------------|---------4-------5-------6-------|

G|---------------------------------|---------------------------------|
D|---------------------------------|---------------------------------|
A|-----------------9---------------|---------------------------------|
E|-7-------------------------------|-7---------------7-------8-------|

G|---------------------------------|---------------------------------|
D|---------------------------------|---------------------------------|
A|-----------------11--------------|---------8-------11------8-------|
E|-9-------------------------------|-9-------------------------------|

G|---------------------------------|---------------------------------|
D|---------------------------------|---------------------------------|
A|-9-------9-------9-------9-------|-9-------9-------9-------9-------|
E|---------------------------------|---------------------------------|

G|---------------------------------|---------------------------------|
D|---------------------------------|---------------------------------|
A|-7---------------------------7---|-7-------------------------------|
E|-----------------7---------------|---------4-------5-------6-------|

G|---------------------------------|---------------------------------|
D|---------------------------------|---------------------------------|
A|-----------------9---------------|-----------------9---------------|
E|-7-------------------------------|-7-----------------------7-------|

G|---------------------------------|---------------------------------|
D|---------------------------------|---------------------------------|
A|-----------------11--------------|---------8-------11------11------|
E|-9-------------------------------|-9-------------------------------|

G|---------------------------------|---------------------------------|
D|---------------------------------|---------------------------------|
A|-9-------9-------9-------9-------|-9-------9-------9-------9\------|
E|---------------------------------|---------------------------------|

VERSE

G|---------------------------------|---------------------------------|
D|---------------------------------|---------------------------------|
A|-----------------9---------------|-----------------9---------------|
E|-7---------------------------6---|-7---------------------------6---|

G|---------------------------------|---------------------------------|
D|---------------------------------|---------------------------------|
A|-----------------9---------------|-----------------9---------------|
E|-7---------------------------6---|-7---------------------------6---|

G|---------------------------------|---------------------------------|
D|---------------------------------|---------------------------------|
A|-----------------9---------------|-----------------9---------------|
E|-7---------------------------6---|-7-------------------------------|

G|---------------------------------|---------------------------------|
D|---------------------------------|---------------------------------|
A|-----------------9---------------|-----------------9---------------|
E|-7---------------------------6---|-7-------------------------------|

G|---------------------------------|---------------------------------|
D|---------------------------------|---------------------------------|
A|---------------------------------|---------------------------------|
E|-7-------------------------------|-7-------------------------------|

G|---------------------------------|---------------------------------|
D|---------------------------------|---------------------------------|
A|-7---------------------------7---|-7-------------------------------|
E|-----------------7---------------|---------4-------5-------6-------|

G|---------------------------------|---------------------------------|
D|---------------------------------|---------------------------------|
A|-----------------9---------------|-9-----------------------9-------|
E|-7-----------------------7-------|-------------9---9---------------|

OUTRO

G|---------------------------------|---------------------------------|
D|---------------------------------|---------------------------------|
A|-----------------9---------------|-9-----------------------9-------|
E|-7-----------------------7-------|-------------9---9---------------|

G|---------------------------------|---------------------------------|
D|---------------------------------|---------------------------------|
A|-----------------9---------------|-9-----------------------9-------|
E|-7-----------------------7-------|-------------9---9---------------|

G|---------------------------------|---------------------------------|
D|---------------------------------|---------------------------------|
A|---------6-------7-------8-------|-9---7---------------------------|
E|-7-------------------------------|---------9---7-----------7-------|
Comments