Beatles - Octopuss Garden Chords & Tabs

 

Octopuss Garden Chords & Tabs

Beatles Chords & Tabs

Version: 4 Type: Tab 0 ratings
1 star 2 stars 3 stars 4 stars 5 stars
comments

Octopuss Garden Tab

   
-----------------------------------------------------------------
  THE BEATLES - OCTOPUS'S GARDEN (Starkey) From ABBEY ROAD album. 
                Released 26th September 1969.
-----------------------------------------------------------------
  Tabbed by:PJVillanueva



I'd like to be under the sea
In an octopus' garden in the shade
He'd let us in, knows where we've been  
In his octopus's garden in the shade      

I'd ask my friends to come and see
An octopus' garden with me
I'd like to be under the sea
In an octopus' garden in the shade.

We would be warm below the storm
In our little hideaway beneath the waves
Resting our head on the sea bed
In an octopus' garden near a cave

We would sing and dance around
because we know we can't be found
I'd like to be under the sea
In an octopus' garden in the shade

Solo

We would shout and swim about
The coral that lies beneath the waves
(Lies beneath the ocean waves)
Oh what joy for every girl and boy
Knowing they're happy and they're safe
(Happy and they're safe)

We would be so happy you and me
No one there to tell us what to do
I'd like to be under the sea
In an octopus' garden with you.
In an octopus' garden with you.
In an octopus' garden with you.

                                     
  
e|------- ------- ------- -------|------- ------- ------- -------|
B|-------------------------------|-------------------------------|
G|-------------------------------|------------------------9-H-11-/
D|-------------------------------|----------------9-H-11---------|
A|-------------------------------|-------------------------------|
E|-------------------------------|-------------------------------|



e|------- ------- ------- -------|------- ------- ------- -------|
B|----12-H14-P12-----------------|-------------------------------|
G|13--------------13--11-\9----11/13----------------------9-H-11-/
D|-------------------------------|----------------9-H-11---------|
A|-------------------------------|-------------------------------|
E|-------------------------------|-------------------------------|

e|------- ------- ------- -------|------- ------- ------- -------|
B|-------------------------------|-------------------------------|
G|-----------------------------12|13-----------------------------|
D|-----------------------------13|14-----------------------------|
A|-------------------------------|-------------------------------|
E|-------------------------------|-------------------------------|



e|----12- ------- ------- -------|------- -------|
B|--------14--12-----------------/10-----/11-----/
G|13--------------13-P11-\9------/11-----/12-----/
D|-------------------------------|---------------|
A|-------------------------------|---------------|
E|-------------------------------|---------------|


  E                               C#m
e|0------ ------- ------- -------|4------ ------- ------- -------|
B|--------------------0----------|--------------------5----------|
G|------------1------------------|------------6------------------|
D|--------2---------------2------|--------6---------------6------|
A|----------------2--------------|4------------------------------|
E|0------------------------------|----------------4--------------|

e|------- ------- ------- -------|------- ------- ------- -------|
B|12--------------14-------------|-------------------------------|
G|13----------------------13-\11-|9-------9-------11-P9----------|
D|-------------------------------|------------------------11-P9--|
A|-------------------------------|-------------------------------|
E|-------------------------------|-------------------------------|




  A                               B
e|5------ ------- ------- -------|7------ ------- ------- -------|
B|--------------------5----------|--------------------7----------|
G|------------6------------------|------------8------------------|
D|--------7---------------7------|--------9---------------9------|
A|----------------7--------------|----------------9--------------|
E|5------------------------------|7------------------------------|

e|------- ------- ------- -------|------- ------- ------- -------|
B|-------------------------------|-------------------------------|
G|-------------------------------|-------------------------------|
D|-------------------------------|-------------------------------|
A|11-P9-\-7-------7-------9------|-------------------------------|
E|-------------------------------|--------7-------7--------------|




  E
e|0------ ------- ------- -------|0------ ------- ------- -------|
B|--------------------0----------|--------------------0----------|
G|------------1------------------|------------1------------------|
D|--------2---------------2------|--------2---------------2------|
A|----------------2--------------|----------------2--------------|
E|0------------------------------|0------------------------------|
          I'd     like    to  be                 
e|------- ------- ------- -------|------- ------- ------- -------|
B|-------------------------------|-------------------------------|
G|-------------------------------|-------------------------------|
D|-------------------------------|-------------------------------|
A|7------------------------------|-------------------------------|
E|-------------------------------|-------------------------------|




  C#m
e|4------ ------- ------- -------|4------ ------- ------- -------|
B|--------------------5----------|--------------------5----------|
G|------------6------------------|------------6------------------|
D|--------6---------------6------|--------6---------------6------|
A|4------------------------------|4------------------------------|
E|----------------4--------------|----------------4--------------|
          Under           the sea                         In  an

  A              
e|5------ ------- ------- -------|5------ ------- ------- -------|
B|--------------------5----------|--------------------5----------|
G|------------6------------------|------------6------------------|
D|--------7---------------7------|--------7---------------7------|
A|----------------7--------------|----------------7--------------|
E|5------------------------------|5------------------------------|
   octopus's                  garden                  in  the shade

  B
e|7------ ------- ------- -------|7------ ------- ------- -------|
B|--------------------7----------|--------------------7----------|
G|------------8------------------|------------8------------------|
D|--------9---------------9------|--------9---------------9------|
A|----------------9--------------|----------------9--------------|
E|7------------------------------|7------------------------------|


  E
e|0------ ------- ------- -------|0------ ------- ------- -------|
B|--------------------0----------|--------------------0----------|
G|------------1------------------|------------1------------------|
D|--------2---------------2------|--------2---------------2------|
A|----------------2--------------|----------------2--------------|
E|0------------------------------|0------------------------------|
          He'd    let us      in                 

  C#m
e|4------ ------- ------- -------|4------ ------- ------- -------|
B|--------------------5----------|--------------------5----------|
G|------------6------------------|------------6------------------|
D|--------6---------------6------|--------6---------------6------|
A|4------------------------------|4------------------------------|
E|----------------4--------------|----------------4--------------|
          Knows   where  we've been                       in his

  A
e|5------ ------- ------- -------|5------ ------- ------- -------|
B|--------------------5----------|--------------------5----------|
G|------------6------------------|------------6------------------|
D|--------7---------------7------|--------7---------------7------|
A|----------------7--------------|----------------7--------------|
E|5------------------------------|5------------------------------|
   octopus's                  garden                  in  the shade

  B
e|7------ ------- ------- -------|7------ ------- ------- -------|
B|--------------------7----------|--------------------7----------|
G|------------8------------------|------------8------------------|
D|--------9---------------9------|--------9---------------9------|
A|----------------9--------------|----------------9--------------|
E|7------------------------------|7------------------------------|

e|------- ------- ------- ------9/11----- ------- 7------ -------|
B|-------------------------------|-------------------------------|
G|------------------------------9/11--------------8--------------|
D|-------------------------------|-------------------------------|
A|-------------------------------|-------------------------------|
E|-------------------------------|-------------------------------|




  C#m
e|4------ ------- ------- -------|------- ------- ------- -------|
B|5------------------------------|-------------------------------|
G|6------------------------------|-------------------------------|
D|6------------------------------|-------------------------------|
A|4------------------------------|-------------------------------|
E|-------------------------------|-------------------------------|
          I'd     ask     my      friends                 to 
e|9------ ------- ------- -------|------- ------- ------- -------|
B|-------------------------------|-------------------------------|
G|9------------------------------|-------------------------------|
D|-------------------------------|-------------------------------|
A|-------------------------------|-------------------------------|
E|-------------------------------|-------------------------------|

e|0------ 0------ 0------ 0------|0------ 0------ 0------ 0------|
B|2-------2-------2-------2--P--0|2-------2-------2--P--0-2------|
G|1-------1-------1-------1------|1-------1-------1-------1------|
D|-------------------------------|-------------------------------|
A|-------------------------------|-------------------------------|
E|-------------------------------|-------------------------------|




                                                  B
e|------- ------- ------- -------|4------ ------- 2------ -------|
B|-------------------------------|5---------------4--------------|
G|-------------------------------|6---------------4--------------|
D|-------------------------------|6---------------4--------------|
A|-------------------------------|4---------------2--------------|
E|-------------------------------|-------------------------------|
  come            and     see
e|0------ 0------ 0------ 0------|0------ 0------ 4------ 4------|
B|2-------2--P--0-2-------2--P--0|2-------2-------4--H--5P4------|
G|1-------1-------1-------1------|1-------1-------4--H--6P4------|
D|-------------------------------|----------------6-------6------|
A|-------------------------------|-------------------------------|
E|-------------------------------|-------------------------------|



  A
e|0------ ------- ------- -------|------- ------- ------- -------|
B|2------------------------------|-------------------------------|
G|2------------------------------|-------------------------------|
D|2------------------------------|-------------------------------|
A|0------------------------------|-------------------------------|
E|-------------------------------|-------------------------------|
          An      octopus's 
e|------- ------- ------- -------|------- ------- ------- -------|
B|5-------5-------5-------5------|5-------5-------5-------5------|
G|6-------6-------6-------6------|6-------6-------6-------6------|
D|------------------------------7|--------------7----------------|
A|-------------------------------|-------------------------------|
E|-------------------------------|-------------------------------|
          


  B
e|2------ 2------ 2------ 2------|------- 2------ 2------ -------|
B|4-------4-------4-------4------|--------4-------4--------------|
G|4-------4-------4-------4------|--------4-------4--------------|
D|4-------4-------4-------4------|--------4-------4--------------|
A|2-------2-------2-------2------|--------2-------2--------------|
E|-------------------------------|-------------------------------|
  garden          with    me
e|------- ------- ------- -------|------- ------- ------- -------|
B|7-------7-------9-------7------|-------------------------------|
G|8-------8-------8-------8------|-------------------------------|
D|9-------9-------9-------9------|-------------------------------|
A|-------------------------------|-------------------------------|
E|-------------------------------|-------------------------------|



  E
e|0------ ------- ------- -------|0------ ------- ------- -------|
B|--------------------0----------|--------------------0----------|
G|------------1------------------|------------1------------------|
D|--------2---------------2------|--------2---------------2------|
A|----------------2--------------|----------------2--------------|
E|0------------------------------|0------------------------------|
          I'd     like    to  be                 
         (I'd     like    to  be                 

  C#m
e|4------ ------- ------- -------|4------ ------- ------- -------|
B|--------------------5----------|--------------------5----------|
G|------------6------------------|------------6------------------|
D|--------6---------------6------|--------6---------------6------|
A|4------------------------------|4------------------------------|
E|----------------4--------------|----------------4--------------|
          Under           the sea                         In  an
          Under           the sea                         In  an

  A                               B
e|5------ ------- ------- -------|7------ ------- ------- -------|
B|--------------------5----------|--------------------7----------|
G|------------6------------------|------------8------------------|
D|--------7---------------7------|--------9---------------9------|
A|----------------7--------------|----------------9--------------|
E|5------------------------------|7------------------------------|
   octopus's                  garden                  in  the shade
   octopus's                  garden                  in  the shade)

  E
e|0------ ------- ------- -------|0------ ------- ------- -------|
B|--------------------0----------|--------------------0----------|
G|------------1------------------|------------1------------------|
D|--------2---------------2------|--------2---------------2------|
A|----------------2--------------|----------------2--------------|
E|0------------------------------|0------------------------------|

e|------- ------- 9------ 7------|------- ------- ------- -------|
B|------------9------------------|9------------------------------|
G|--------9-------9-------8------|9------------------------------|
D|-------------------------------|--------------------9-/-11-----|
A|-------------------------------|----------------11-------------|
E|-------------------------------|-------------------------------|



  E
e|0------ ------- ------- -------|0------ ------- ------- -------|
B|--------------------0----------|--------------------0----------|
G|------------1------------------|------------1------------------|
D|--------2---------------2------|--------2---------------2------|
A|----------------2--------------|----------------2--------------|
E|0------------------------------|0------------------------------|
          We      would   be warm
                                                 (Oooooooooooooo..
e|------- ------- ------- -------|------- ------- ------- -------|
B|-------------------------------|-------------------------------|
G|9------------------------------|-------------------------------|
D|-------------------------------|-------------------------------|
A|-------------------------------|-------------------------------|
E|-------------------------------|-------------------------------|

                

  C#m
e|4------ ------- ------- -------|4------ ------- ------- -------|
B|--------------------5----------|--------------------5----------|
G|------------6------------------|------------6------------------|
D|--------6---------------6------|--------6---------------6------|
A|4------------------------------|4------------------------------|
E|----------------4--------------|----------------4--------------|
          below           the storm                       In  a
  ooooooooooooooh                                  Oooooooooooooo..

  A
e|5------ ------- ------- -------|5------ ------- ------- -------|
B|--------------------5----------|--------------------5----------|
G|------------6------------------|------------6------------------|
D|--------7---------------7------|--------7---------------7------|
A|----------------7--------------|----------------7--------------|
E|5------------------------------|5------------------------------|
   litlle         hide    away                beneath     the waves
  oooooooooooooooh

  B
e|7------ ------- ------- -------|7------ ------- ------- -------|
B|--------------------7----------|--------------------7----------|
G|------------8------------------|------------8------------------|
D|--------9---------------9------|--------9---------------9------|
A|----------------9--------------|----------------9--------------|
E|7------------------------------|7------------------------------| 

  Aaaaaaaaaaaaaaaaaaaaaaaaaaaaaaaaaaaaaaaaaaaaaaaaaaaaaaaaaaaaaaa

  E
e|0------ ------- ------- -------|0------ ------- ------- -------|
B|--------------------0----------|--------------------0----------|
G|------------1------------------|------------1------------------|
D|--------2---------------2------|--------2---------------2------|
A|----------------2--------------|----------------2--------------|
E|0------------------------------|0------------------------------|
          Resting     our         head 
  aaaaaaaaaaaaaaaaaaaaaaaaaaaaaaah                 Oooooooooooooo..

e|------- ------- ------- -------|------- ------- 12----- -------|
B|-------------------------------|--------------------14--12-----|
G|-------------------------------|-------------------------------|
D|-------------------------------|-------------------------------|
A|-------------------------------|-------------------------------|
E|-------------------------------|-------------------------------|              



  C#m
e|4------ ------- ------- -------|4------ ------- ------- -------|
B|--------------------5----------|--------------------5----------|
G|------------6------------------|------------6------------------|
D|--------6---------------6------|--------6---------------6------|
A|4------------------------------|4------------------------------|
E|----------------4--------------|----------------4--------------|
          on      the sea         bed                     in  an
  oooooooooooooooh                                 Oooooooooooooo..
e|------- ------- ------- -------|14B16-- ----14- ------- 12-----|
B|-------------------------------|-------------------------------|
G|13-----------------------------|-------------------------------|
D|-------------------------------|-------------------------------|
A|-------------------------------|-------------------------------|
E|-------------------------------|-------------------------------|



  A
e|5------ ------- ------- -------|5------ ------- ------- -------|
B|--------------------5----------|--------------------5----------|
G|------------6------------------|------------6------------------|
D|--------7---------------7------|--------7---------------7------|
A|----------------7--------------|----------------7--------------|
E|5------------------------------|5------------------------------|
   octopus's                  garden                  near a  cave
  oooooooooooooooh
e|------- ------- ------- -------|------- ------- ------- -------|
B|14-----------------------------|-------------------------------|
G|-------------------------------|-------------------------------|
D|-------------------------------|-------------------------------|
A|-------------------------------|-------------------------------|
E|-------------------------------|-------------------------------|



  B
e|7------ ------- ------- -------|7------ ------- ------- -------|
B|--------------------7----------|--------------------7----------|
G|------------8------------------|------------8------------------|
D|--------9---------------9------|--------9---------------9------|
A|----------------9--------------|----------------9--------------|
E|7------------------------------|7------------------------------| 

  Aaaaaaaaaaaaaaaaaaaaaaaaaaaaaaaaaaaaaaaaaaaaaaaaaaaaaaaaaaaaaaa

  C#m
e|4------ ------- ------- -------|------- ------- ------- -------|
B|5------------------------------|-------------------------------|
G|6------------------------------|-------------------------------|
D|6------------------------------|-------------------------------|
A|4------------------------------|-------------------------------|
E|-------------------------------|-------------------------------|
          We      would           sing                    and 
  aaaaaaaaaaaaaaaaaaaaaaaaaaaaaah)
e|0------ 0------ 0------ 0------|0------ 0------ 0------ 0------|
B|2-------2-------2-------2--P--0|2-------2-------2--P--0-2------|
G|1-------1-------1-------1------|1-------1-------1-------1------|
D|-------------------------------|-------------------------------|
A|-------------------------------|-------------------------------|
E|-------------------------------|-------------------------------|



                                                  B
e|------- ------- ------- -------|4------ ------- 2------ -------|
B|-------------------------------|5---------------4--------------|
G|-------------------------------|6---------------4--------------|
D|-------------------------------|6---------------4--------------|
A|-------------------------------|4---------------2--------------|
E|-------------------------------|-------------------------------|
  dance           around 
e|0------ 0------ 0------ 0------|0------ 0------ 4------ 4------|
B|2-------2--P--0-2-------2--P--0|2-------2-------4--H--5P4------|
G|1-------1-------1-------1------|1-------1-------4--H--6P4------|
D|-------------------------------|----------------6-------6------|
A|-------------------------------|-------------------------------|
E|-------------------------------|-------------------------------|




  A
e|0------ ------- ------- -------|------- ------- ------- -------|
B|2------------------------------|-------------------------------|
G|2------------------------------|-------------------------------|
D|2------------------------------|-------------------------------|
A|0------------------------------|-------------------------------|
E|-------------------------------|-------------------------------|
          Because         we      know                    we
e|------- ------- ------- -------|------- ------- ------- -------|
B|5-------5-------5-------5------|5-------5-------5-------5------|
G|6-------6-------6-------6------|6-------6-------6-------6------|
D|--------------7----------------|------7---------------7--------|
A|-------------------------------|-------------------------------|
E|-------------------------------|-------------------------------|
          

 

  B
e|2------ 2------ 2------ -------|------- ------- ------- -------|
B|4-------4-------4--------------|-------------------------------|
G|4-------4-------4--------------|-------------------------------|
D|4-------4-------4--------------|-------------------------------|
A|2-------2-------2--------------|-------------------------------|
E|-------------------------------|-------------------------------|
  can't be found
e|------- ------- ------- -------|------- ------- ------- -------|
B|7-------7-------9--------------|-------------------------------|
G|8-------8-------8--------------|-------------------------------|
D|9-------9-------9--------------|-------------------------------|
A|-------------------------------|-------------------------------|
E|-------------------------------|-------------------------------|


[ Tab from: http://www.guitartabs.cc/tabs/b/beatles/octopuss_garden_tab_ver_4.html ]
  E
e|0------ ------- ------- -------|0------ ------- ------- -------|
B|--------------------0----------|--------------------0----------|
G|------------1------------------|------------1------------------|
D|--------2---------------2------|--------2---------------2------|
A|----------------2--------------|----------------2--------------|
E|0------------------------------|0------------------------------|
          I'd     like    to  be  
         (I'd     like    to  be     

  C#m
e|4------ ------- ------- -------|4------ ------- ------- -------|
B|--------------------5----------|--------------------5----------|
G|------------6------------------|------------6------------------|
D|--------6---------------6------|--------6---------------6------|
A|4------------------------------|4------------------------------|
E|----------------4--------------|----------------4--------------|
          Under           the sea                         In  an
          Under           the sea                         In  an

  A                               B
e|5------ ------- ------- -------|7------ ------- ------- -------|
B|--------------------5----------|--------------------7----------|
G|------------6------------------|------------8------------------|
D|--------7---------------7------|--------9---------------9------|
A|----------------7--------------|----------------9--------------|
E|5------------------------------|7------------------------------|
   octopus's                  garden                  in  the shade
   octopus's                  garden                  in  the shade)


                                  Solo
  E
e|0------ ------- ------- -------|0------ ------- ------- -------|
B|--------------------0----------|--------------------0----------|
G|------------1------------------|------------1------------------|
D|--------2---------------2------|--------2---------------2------|
A|----------------2--------------|----------------2--------------|
E|0------------------------------|0------------------------------|

e|------- ------- ------- -------|------- ------- ------- -------|
B|-------------------------------|------------------------12-----|
G|-------------------------------|-------------11/13-------------|
D|-------------------------------|-------------------------------|
A|-------------------------------|-------------------------------|
E|-------------------------------|-------------------------------|


  A
e|5------ ------- ------- -------|5------ ------- ------- -------|
B|--------------------5----------|--------------------5----------|
G|------------6------------------|------------6------------------|
D|--------7---------------7------|--------7---------------7------|
A|----------------7--------------|----------------7--------------|
E|5------------------------------|5------------------------------|

e|------- ------- ------- 14-----|------- ------- ------- -------|
B|--------13B14------------------|14--12--10------10----------12/|
G|-------------------------------|-------------------------------|
D|-------------------------------|-------------------------------|
A|-------------------------------|-------------------------------|
E|-------------------------------|-------------------------------|



  F#m
e|2------ ------- ------- -------|2------ ------- ------- -------|
B|--------------------2----------|--------------------2----------|
G|------------2------------------|------------2------------------|
D|--------4---------------4------|--------4---------------4------|
A|----------------4--------------|----------------4--------------|
E|2------------------------------|2------------------------------|

e|----12- 12----- 12\---- ----12-|----12- 12----- ----12- ----12-|
B|14-------------------12/14-----|-------------12/14-------------|
G|-------------------------------|-------------------------------|
D|-------------------------------|-------------------------------|
A|-------------------------------|-------------------------------|
E|-------------------------------|-------------------------------|



  D           
e|------- ------- ------- -------|------- ------- ------- -------|
B|10-----------------------------|10-----------------------------|
G|--------------------11---------|--------------------11---------|
D|------------12-----------------|------------12-----------------|
A|--------12--------------12-----|--------12--------------12-----|
E|10--------------10-------------|10--------------10-------------|

e|19B21-- ------- 17----- 17-----|------- 19B21-- ------- 17-----|
B|-------------------------------|-------------------------------|
G|-------------------------------|-------------------------------|
D|-------------------------------|-------------------------------|
A|-------------------------------|-------------------------------|
E|-------------------------------|-------------------------------|



  E
e|------- ------- ------- -------|------- ------- ------- -------|
B|12-----------------------------|12-----------------------------|
G|--------------------13---------|--------------------13---------|
D|------------14-----------------|------------14-----------------|
A|--------14--------------14-----|--------14--------------14-----|
E|12--------------12-------------|12--------------12-------------|

e|17----- ------- ------- -------|------- ------- ------- -------|
B|----------------17------17-----|--------17------17B19---17-----|
G|-------------------------------|-------------------------------|
D|-------------------------------|-------------------------------|
A|-------------------------------|-------------------------------|
E|-------------------------------|-------------------------------|



  A
e|5------ ------- ------- -------|5------ ------- ------- -------|
B|--------------------5----------|--------------------5----------|
G|------------6------------------|------------6------------------|
D|--------7---------------7------|--------7---------------7------|
A|----------------7--------------|----------------7--------------|
E|5------------------------------|5------------------------------|

e|------- ------- ------- -------|----14- ------- ------- -------|
B|-------------------------------|------------------------12-----|
G|14----------------------14--16-B18------16------14-------------|
D|----------------14--16---------|-------------------------------|
A|-------------------------------|-------------------------------|
E|-------------------------------|-------------------------------|



  F#m
e|2------ ------- ------- -------|2------ ------- ------- -------|
B|--------------------2----------|--------------------2----------|
G|------------2------------------|------------2------------------|
D|--------4---------------4------|--------4---------------4------|
A|----------------4--------------|----------------4--------------|
E|2------------------------------|2------------------------------|

e|----12- ----12- 12----- ----12-|----12- 12----- ----12- ----12-|
B|---------------------12/14-----|-------------12/14-------------|
G|-------------------------------|-------------------------------|
D|-------------------------------|-------------------------------|
A|-------------------------------|-------------------------------|
E|-------------------------------|-------------------------------|



  D                               E
e|------- ------- ------- -------|------- ------- ------- -------|
B|10-----------------------------|12-----------------------------|
G|--------------------11---------|--------------------12---------|
D|------------12-----------------|------------14-----------------|
A|--------12--------------12-----|--------14--------------14-----|
E|10--------------10-------------|12--------------12-------------|

e|19B21-- ------- 19B21-- -------|21B19-- 17----- 17----- 19-----|
B|-------------------------------|-------------------------------|
G|-------------------------------|-------------------------------|
D|-------------------------------|-------------------------------|
A|-------------------------------|-------------------------------|
E|-------------------------------|-------------------------------|



  A                               B
e|5------ ------- ------- -------|7------ ------- ------- -------|
B|--------------------5----------|--------------------7----------|
G|------------6------------------|------------8------------------|
D|--------7---------------7------|--------9---------------9------|
A|----------------7--------------|----------------9--------------|
E|5------------------------------|7------------------------------|

e|17----- ------- ------- -------|------- ------- ------- -------|
B|-------------------------------|----12------12--12------10-----|
G|-------------------------------|----11------11--11------11-----|
D|-------------------------------|----13------13--13------13-----|
A|-------------------------------|-------------------------------|
E|-------------------------------|-------------------------------|


  E
e|0------ ------- ------- -------|0------ ------- ------- -------|
B|--------------------0----------|--------------------0----------|
G|------------1------------------|------------1------------------|
D|--------2---------------2------|--------2---------------2------|
A|----------------2--------------|----------------2--------------|
E|0------------------------------|0------------------------------|
                  We  would   shout          
                                                  (Aaaaaaaaaaaaaa

  C#m
e|4------ ------- ------- -------|4------ ------- ------- -------|
B|--------------------5----------|--------------------5----------|
G|------------6------------------|------------6------------------|
D|--------6---------------6------|--------6---------------6------|
A|4------------------------------|4------------------------------|
E|----------------4--------------|----------------4--------------|
          And     swim    about                               the
  aaaaaaaaaaaaaaah                                 Ooooooooooooooo

  A   
e|5------ ------- ------- -------|5------ ------- ------- -------|
B|--------------------5----------|--------------------5----------|
G|------------6------------------|------------6------------------|
D|--------7---------------7------|--------7---------------7------|
A|----------------7--------------|----------------7--------------|
E|5------------------------------|5------------------------------|
   coral                  that    lies        beneath     the waves
  oooooooooooooooh
 
  B
e|7------ ------- ------- -------|7------ ------- ------- -------|
B|--------------------7----------|--------------------7----------|
G|------------8------------------|------------8------------------|
D|--------9---------------9------|--------9---------------9------|
A|----------------9--------------|----------------9--------------|
E|7------------------------------|7------------------------------| 

  Lies            beneath                 the     ocean 

  E
e|0------ ------- ------- -------|0------ ------- ------- -------|
B|--------------------0----------|--------------------0----------|
G|------------1------------------|------------1------------------|
D|--------2---------------2------|--------2---------------2------|
A|----------------2--------------|----------------2--------------|
E|0------------------------------|0------------------------------|
                  Oh, what    joy                             for              
  waves                                           Aaaaaaaaaaaaaaa 

  C#m
e|4------ ------- ------- -------|4------ ------- ------- -------|
B|--------------------5----------|--------------------5----------|
G|------------6------------------|------------6------------------|
D|--------6---------------6------|--------6---------------6------|
A|4------------------------------|4------------------------------|
E|----------------4--------------|----------------4--------------|
  every           girl and    boy
  aaaaaaaaaaaaaaah                                 Ooooooooooooooo

  A
e|5------ ------- ------- -------|5------ ------- ------- -------|
B|--------------------5----------|--------------------5----------|
G|------------6------------------|------------6------------------|
D|--------7---------------7------|--------7---------------7------|
A|----------------7--------------|----------------7--------------|
E|5------------------------------|5------------------------------|
  Knowing                 they're happy           and     they're 
  oooooooooooooooooooooooooooooh

  B
e|7------ ------- ------- -------|7------ ------- ------- -------|
B|--------------------7----------|--------------------7----------|
G|------------8------------------|------------8------------------|
D|--------9---------------9------|--------9---------------9------|
A|----------------9--------------|----------------9--------------|
E|7------------------------------|7------------------------------| 
  safe
  Happy                           and             they're 

  C#m
e|4------ ------- ------- -------|------- ------- ------- -------|
B|5------------------------------|-------------------------------|
G|6------------------------------|-------------------------------|
D|6------------------------------|-------------------------------|
A|4------------------------------|-------------------------------|
E|-------------------------------|-------------------------------|  
                  We      would   be                      so
  safe)
e|0------ 0------ 0------ 0------|0------ 0------ 0------ 0------|
B|2-------2--P--0-2-------2--P--0|2-------2-----0-2-------2--P--0|
G|1-------1-------1-------1------|1-------1-------1-------1------|
D|-------------------------------|-------------------------------|
A|-------------------------------|-------------------------------|
E|-------------------------------|-------------------------------|



                                                  B
e|------- ------- ------- -------|4------ ------- 2------ -------|
B|-------------------------------|5---------------4--------------|
G|-------------------------------|6---------------4--------------|
D|-------------------------------|6---------------4--------------|
A|-------------------------------|4---------------2--------------|
E|-------------------------------|-------------------------------|
  happy           you and     me
e|0------ 0------ 0------ 0------|0------ 0------ 4------ 4------|
B|2-------2--P--0-2-------2--P--0|2-------2-------4--H--5P4------|
G|1-------1-------1-------1------|1-------1-------4--H--6P4------|
D|-------------------------------|----------------6-------6------|
A|-------------------------------|-------------------------------|
E|-------------------------------|-------------------------------|



  A
e|0------ ------- ------- -------|------- ------- ------- -------|
B|2------------------------------|-------------------------------|
G|2------------------------------|-------------------------------|
D|2------------------------------|-------------------------------|
A|0------------------------------|-------------------------------|
E|-------------------------------|-------------------------------|
  No      one    there        to  tell us         what    to do 
e|------- ------- ------- -------|------- ------- ------- -------|
B|5-------5-------5-------5------|5-------5-------5-------5------|
G|6-------6-------6-------6------|6-------6-------6-------6------|
D|------------------------------7|--------------7----------------|
A|-------------------------------|-------------------------------|
E|-------------------------------|-------------------------------|
          



  B
e|2------ 2------ 2------ 2------|------- 2------ 2------ -------|
B|4-------4-------4-------4------|--------4-------4--------------|
G|4-------4-------4-------4------|--------4-------4--------------|
D|4-------4-------4-------4------|--------4-------4--------------|
A|2-------2-------2-------2------|--------2-------2--------------|
E|-------------------------------|-------------------------------|

e|------- ------- ------- -------|------- ------- ------- -------|
B|7-------7-------9-------7------|-------------------------------|
G|8-------8-------8-------8------|-------------------------------|
D|9-------9-------9-------9------|-------------------------------|
A|-------------------------------|-------------------------------|
E|-------------------------------|-------------------------------|
  


  E
e|0------ ------- ------- -------|0------ ------- ------- -------|
B|--------------------0----------|--------------------0----------|
G|------------1------------------|------------1------------------|
D|--------2---------------2------|--------2---------------2------|
A|----------------2--------------|----------------2--------------|
E|0------------------------------|0------------------------------|
          I'd     like    to  be 
         (I'd     like    to  be                  
                                                  Aaaaaaaaaaaaaaa
e|------- ------- ------- -------|------- ------- 12----- -------|
B|-------------------------------|--------14--12------14--12-----|
G|-------------------------------|-------------------------------|
D|-------------------------------|-------------------------------|
A|-------------------------------|-------------------------------|
E|-------------------------------|-------------------------------|

                

  C#m
e|4------ ------- ------- -------|4------ ------- ------- -------|
B|--------------------5----------|--------------------5----------|
G|------------6------------------|------------6------------------|
D|--------6---------------6------|--------6---------------6------|
A|4------------------------------|4------------------------------|
E|----------------4--------------|----------------4--------------|
          Under           the sea                         In  an
          Under           the sea                         In  an
  aaaaaaaaaaaaaah                                 Aaaaaaaaaaaaaaa
e|------- ------- ------- -------|14--12- ----14- 12----- -------|
B|-------------------------------|--------14--------------12-----|
G|13-----------------------------|-------------------------------|
D|-------------------------------|-------------------------------|
A|-------------------------------|-------------------------------|
E|-------------------------------|-------------------------------|



  A                               B
e|5------ ------- ------- -------|7------ ------- ------- -------|
B|--------------------5----------|--------------------7----------|
G|------------6------------------|------------8------------------|
D|--------7---------------7------|--------9---------------9------|
A|----------------7--------------|----------------9--------------|
E|5------------------------------|7------------------------------|
   octopus's                  garden                  with    you 
   octopus's                  garden                  with    you
  aaaaaaaaaaaaaaaaaaaaaaaaaaaaaaaaaaaaaaaaaaaaaaaaaaaaaaaaaaaaaah  
e|------- ------- ------- -------|------- ------- ------- -------|
B|14-----------------------------|12-----------------------------|
G|-------------------------------|-------------------------------|
D|-------------------------------|-------------------------------|
A|-------------------------------|-------------------------------|
E|-------------------------------|-------------------------------|



  C#m
e|------- ------- ------- -------|------- ------- ------- -------|
B|5-------------------6----------|5-------------------6----------|
G|------------6------------------|-----------4-------------------|
D|--------6---------------6------|--------6---------------6------|
A|4------------------------------|4------------------------------|
E|----------------4--------------|----------------4--------------|
                                                          In  an
                                                          In  an
  Ooooooooooooooooooooooooooooooooooooooh          Aaaaaaaaaaaaaa
e|------- ------- ------- -------|----9-- ------- ------- -------|
B|-------------------------------|-------------------------------|
G|--------9-------9-----------11B|13------11------9-------8------|
D|11-----------------------------|-------------------------------|
A|-------------------------------|-------------------------------|
E|-------------------------------|-------------------------------|



  A                               B
e|5------ ------- ------- -------|7------ ------- ------- -------|
B|--------------------5----------|--------------------7----------|
G|------------6------------------|------------8------------------|
D|--------7---------------7------|--------9---------------9------|
A|----------------7--------------|----------------9--------------|
E|5------------------------------|7------------------------------|
   octopus's                  garden                  with    you
   octopus's                  garden                  with    you
  aaaaaaaaaaaaaaaaaaaaaaaaaaaaaaaaaaaaaaaaaaaaaaaaaaaaaaaaaaaaaah   
e|------- ------- ------- -------|------- ------- ------- -------|
B|-------------------------------|-------------------------------|
G|-------------------------------|-------------------------------|
D|11-----------------------------|-------------------------------|
A|-------------------------------|-------------------------------|
E|-------------------------------|-------------------------------|



  C#m
e|------- ------- ------- -------|------- ------- ------- -------|
B|5-------------------6----------|5-------------------6----------|
G|------------6------------------|-----------4-------------------|
D|--------6---------------6------|--------6---------------6------|
A|4------------------------------|4------------------------------|
E|----------------4--------------|----------------4--------------|
                                                          In  an
                                                          In  an
  Ooooooooooooooooooooooooooooooooooooooh         Aaaaaaaaaaaaaaa
e|14B16-- ----12- ------- 14B15--|------- 12----- 12----- 14-----|
B|-------------------------------|-------------------------------|
G|-------------------------------|-------------------------------|
D|-------------------------------|-------------------------------|
A|-------------------------------|-------------------------------|
E|-------------------------------|-------------------------------|



  A                               B
e|5------ ------- ------- -------|7------ ------- ------- -------|
B|--------------------5----------|--------------------7----------|
G|------------6------------------|------------8------------------|
D|--------7---------------7------|--------9---------------9------|
A|----------------7--------------|----------------9--------------|
E|5------------------------------|7------------------------------|
   octopus's                  garden                  with    you
   octopus's                  garden                  with    you)
  aaaaaaaaaaaaaaaaaaaaaaaaaaaaaaaaaaaaaaaaaaaaaaaaaaaaaah)   
e|------- ------- ------- -------|------- ------- ------- -------|
B|14-----------------------------|12-----------------------------|
G|-------------------------------|-------------------------------|
D|-------------------------------|-------------------------------|
A|-------------------------------|-------------------------------|
E|-------------------------------|-------------------------------|



  E                                       D#      E
e|0------ ------- ------- -------|------- ------- ------- -------|
B|-------------------------------|--------8-------9--------------|
G|-------------------------------|--------8-------9--------------|
D|-------------------------------|--------8-------9--------------|
A|-------------------------------|--------6-------7--------------|
E|0------------------------------|-------------------------------|
                                                 (.
e|14B1512 ------- ------- -------|------- ------- ------- -------|
B|--------14------12-------------|------------/---9--------------|
G|------------------------13-P-11\9----11-8---/---9--------------|
D|-------------------------------|-------------------------------|
A|-------------------------------|-------------------------------|
E|-------------------------------|-------------------------------|


        B  Bend
        R  Release
        /  slide up
        \  slide down
        H  hammer-on
        P  pull-off
        ~  vibrato
        +  harmonic
        x  Mute note
        . - play note like a dot in standard notation
        ^ - ties two notes together
Comments