Beatles - Obladi Oblada Chords & Tabs

 

Beatles Chords & Tabs

Version: 1 Type: Tab 0 ratings
1 star 2 stars 3 stars 4 stars 5 stars
comments

Obladi Oblada Tab

   
    -----------------------------------------------------------

    BEATLES - OBLADI OBLADA (Lennon & McCartney) From the WHITE
              ALBUM. Released on 22nd November 1968.
   
    -----------------------------------------------------------

    Tabbed by:PJVillanueva





    Desmond has a barrow in the market place 
    Molly is the singer in a band 
    Desmond says to Molly Girl I like your face 
    And Molly says this as she takes him by the hand. 

                     Chorus 
    Obladi oblada life goes on bra 
    Lala how the life goes on 
    Obladi Oblada life goes on bra 
    Lala how the life goes on. 

    Desmond takes a trolley to the jewellers store 
    Buys a twenty carat golden ring 
    Takes it back to Molly waiting at the door 
    And as he gives it to her she begins to sing. 

                     Chorus  

    In a couple of years they have built 
    A home sweet home 
    With a couple of kids running in the yard 
    Of Desmond and Molly Jones. 

    Happy ever after in the market place 
    Desmond lets the children lend a hand 
    Molly stays at home and does her pretty face 
    And in the evening she still 
    sings in with the band. 

                     Chorus   

    In a couple of years they have built 
    A home sweet home 
    With a couple of kids running in the yard 
    Of Desmond and Molly Jones. 

    Happy ever after in the market place 
    Molly lets the children lend a hand 
    Desmond stays at home and does his pretty face 
    And in the evening she's a singer with the band. 

                     Chorus 

    And if you want some fun ... take Obladiblada.





                     Use a capo on the first fret.




                                    E
  e|------- ------- ------- -------|7---7-7 7---7-7 7---7-- 7------|
  B|-------------------------------|9---9-9-9---9-9-9---9---9------|
  G|-------------------------------|9---9-9-9---9-9-9---8---9------|
  D|-------------------------------|----------------------------11-|
  A|-------------------------------|-------------------------------|
  E|-------------------------------|-------------------------------|


                                                X   x   x   x    x
        A
  e|----0-- ----0-- ----0-- ----0--|----0-- ----0-- ----0-- ----0--|
  B|----2-------2-------2-------2--|----2-------2-------2-------2--|
  G|----2-------2-------2-------2--|----2-------2-------2-------2--|
  D|-------------------------------|-------------------------------|
  A|-------------------------------|-------------------------------|
  E|-------------------------------|-------------------------------|


    x

  e|----0-- ----0-- ----0-- ----0--|----0-- ----0-- ----0-- ----0--|
  B|----2-------2-------2-------2--|----2-------2-------2-------2--|
  G|----2-------2-------2-------2--|----2-------2-------2-------2--|
  D|-------------------------------|-------------------------------|
  A|-------------------------------|-------------------------------|
  E|-------------------------------|-------------------------------|



    00:10
                                        E
  e|----0-- ----0-- ----0-- ----0--|----0-- ----0-- ----0-- ----0--|
  B|----2-------2-------2-------2--|----0-------0-------0-------0--|
  G|----2-------2-------2-------2--|----1-------1-------1-------1--|
  D|-------------------------------|-------------------------------|
  A|-------------------------------|-------------------------------|
  E|-------------------------------|-------------------------------|

  e|------- ------- ------- -------|------- ------- ------- -------|
  B|-------------------------------|-------------------------------|
  G|-------------------------------|-------------------------------|
  D|------------2---------------2--|-------------------------------|
  A|0-------2/4-----0-------2/4----|------------2---------------2--|
  E|-------------------------------|0-------2/4-----0-------2/4----|
    Desmond has a   barrow  in  the market      place           Molly



                                        A
  e|0---0-- ----0-- ----0-- ----0--|----0-- ----0-- ----0-- ----0--|
  B|0---0-------0-------0-------0--|----2-------2-------2-------2--|
  G|1---1-------1-------1-------1--|----2-------2-------2-------2--|
  D|-------------------------------|-------------------------------|
  A|-------------------------------|-------------------------------|
  E|-------------------------------|-------------------------------|

  e|------- ------- ------- -------|------- ------- ------- -------|
  B|-------------------------------|-------------------------------|
  G|-------------------------------|-------------------------------|
  D|-------------------------------|------------2---------------2--|
  A|------------2---------------2--|0-------2/4-----0-------2/4----|
  E|0-------2/4-------------2/4----|-------------------------------|
            is  the singer  in  a   band                        Desmond



                                D
  e|----0-- ----0-- ----0-- -------|------- ------- ------- -------|
  B|----2-------2-------2----------|--------------------3-------3--|
  G|----2-------2-------2-------2--|2---2-------2---2---2-------2--|
  D|----------------------------4--|4---4-------4---4---4-------4--|
  A|----------------------------5--|5---5-------5---5--------------|
  E|-------------------------------|-------------------------------|

  e|------- ------- ------- -------|------- ------- ------- -------|
  B|-------------------------------|-------------------------------|
  G|-------------------------------|------------2---------------2--|
  D|------------2---------------2--|0-------2/4-----0-------2/4----|
  A|0-------2/4-----0-------2/4----|-------------------------------|
  E|-------------------------------|-------------------------------|
            says    Molly   Girl    like        face    and Molly
                to              I       your


        A               E               A
  e|----0-- ----0-- ----0-- ----0--|----0-- 0---0-- ----0-- ----0--|
  B|----2-------2-------0-------0--|----2---2---2-------2-------2--|
  G|----2-------2-------1-------1--|----2---2---2-------2-------2--|
  D|-------------------------------|-------------------------------|
  A|-------------------------------|-------------------------------|
  E|-------------------------------|-------------------------------|

  e|------- ------- ------- -------|------- ------- ------- -------|
  B|-------------------------------|-------------------------------|
  G|-------------------------------|-------------------------------|
  D|------------2------------------|------------2---------------2--|
  A|0-------2/4-----------------2--|0-------2/4-----0-------2/4----|
  E|----------------0-------2/4----|-------------------------------|
    says    as  she takes   by  the                     Ob   La Di
        this            him       hand


    00:27
        A                           E           F#m7
  e|----0-- ----0-- ----0-- ----0--|0---0-- ----0-- ----0-- ----0--|
  B|----2-------2-------2-------2--|0---0-------2-------2-------2--|
  G|----2-------2-------2-------2--|1---1-------2-------2-------2--|
  D|-------------------------------|------------4-------4-------4--|
  A|-------------------------------|-------------------------------|
  E|-------------------------------|-------------------------------|

  e|------- ------- ------- -------|------- ------- ------- -------|
  B|-------------------------------|-------------------------------|
  G|-------------------------------|-------------------------------|
  D|------------2---------------2--|2-----------2---4--------------|
  A|0-------2/4-----0-------2/4----|-------/4--------------/4---2--|
  E|-------------------------------|-------------------------------|
        Ob  La  Da      Life    on              bra             La
                            goes


        A       E                       A
  e|0---0-- ----0-- 0---0-- ----0--|----0-- ----0-- ----0-- ----0--|
  B|2---2-------0---0---0-------0--|----2-------2-------2-------2--|
  G|2---2-------1---1---1-------1--|----2-------2-------2-------2--|
  D|-------------------------------|-------------------------------|
  A|-------------------------------|-------------------------------|
  E|-------------------------------|-------------------------------|

  e|------- ------- ------- -------|------- ------- ------- -------|
  B|-------------------------------|-------------------------------|
  G|-------------------------------|-------------------------------|
  D|------------2------------------|------------2---------------2--|
  A|0-------2/4-----------------2--|0-------2/4-----0-------2/4----|
  E|----------------0-------2/4----|-------------------------------|
        la  how the life        on                      Ob   La Di
                        goes



  e|----0-- ----0-- ----0-- ----0--|----0-- ----0-- ------- -------|
  B|----2-------2-------2-------2--|----0-------0---2---2-------2--|
  G|----2-------2-------2-------2--|----1-------1---2---2-------2--|
  D|-------------------------------|----------------4---4-------4--|
  A|-------------------------------|-------------------------------|
  E|-------------------------------|-------------------------------|

  e|------- ------- ------- -------|------- ------- ------- -------|
  B|-------------------------------|-------------------------------|
  G|-------------------------------|-------------------------------|
  D|------------2---------------2--|2-----------2---4--------------|
  A|0-------2/4-----0-------2/4----|-------/4--------------/4---2--|
  E|-------------------------------|-------------------------------|
        Ob  La  Da      Life    on              bra             La
                            goes



  e|----0-- ----0-- ----0-- ----0--|----0-- ----0-- ----0-- ----0--|
  B|----2-------2-------0-------0--|----2-------2-------2-------2--|
  G|----2-------2-------1-------1--|----2-------2-------2-------2--|
  D|-------------------------------|-------------------------------|
  A|-------------------------------|-------------------------------|
  E|-------------------------------|-------------------------------|

  e|------- ------- ------- -------|------- ------- ------- -------|
  B|-------------------------------|-------------------------------|
  G|-------------------------------|-------------------------------|
  D|------------2------------------|------------2---------------2--|
  A|0-------2/4-----------------2--|0-------2/4-----0-------2/4----|
  E|----------------0-------2/4----|-------------------------------|

  e|------- ------- ------- -------|------- ------- ------- -------|
  B|-------------------------------|-------------------------------|
  G|-------------------------------|-------------------------------|
  D|-------------------------------|----------------------------2H4|
  A|-------------------------------|------------------------2H4----|
  E|-------------------------------|-------------------------------|
        la  how the life        on             
                        goes



    00:45
    Desmond takes a trolley to the jewellers store 
    Buys a twenty carat golden ring 
    Takes it back to Molly waiting at the door 
    And as he 


  e|----0-- ----0-- ----0-- ----0--|----0-- ----0-- ----0-- ----0--|
  B|----2-------2-------0-------0--|----2-------2-------2-------2--|
  G|----2-------2-------1-------1--|----2-------2-------2-------2--|
  D|-------------------------------|-------------------------------|
  A|-------------------------------|-------------------------------|
  E|-------------------------------|-------------------------------|

  e|------- ------- ------- -------|------- ------- ------- -------|
  B|-------------------------------|-------------------------------|
  G|-------------------------------|-------------------------------|
  D|------------2------------------|------------2---------------2--|
  A|0-------2/4-----------------2--|0-------2/4-----0-------2/4----|
  E|----------------0-------2/4----|-------------------------------|

  e|------- ------- ------- -------|------- ------- ------- -------|
  B|-------------------------------|-------------------------------|
  G|-------------------------------|----------------------2--------|
  D|-------------------------------|-------------2--2H4-----4---2--|
  A|-------------------------------|-------------------------------|
  E|-------------------------------|-------------------------------|
    gives   to her  she begins  to  sing.               Obladi 
        it            


    01:01

  e|----0-- ----0-- ----0-- ----0--|----0-- ----0-- ----0-- ----0--|
  B|----2-------2-------2-------2--|----0-------2-------2-------2--|
  G|----2-------2-------2-------2--|----1-------2-------2-------2--|
  D|-------------------------------|------------4-------4-------4--|
  A|-------------------------------|-------------------------------|
  E|-------------------------------|-------------------------------|

  e|------- ------- ------- -------|------- ------- ------- -------|
  B|-------------------------------|-------------------------------|
  G|-------------------------------|-------------------------------|
  D|------------2---------------2--|2-----------2---4--------------|
  A|0-------2/4-----0-------2/4----|-------/4--------------/4---2--|
  E|-------------------------------|-------------------------------|
        Ob  La  Da      Life    on              bra             La
                            goes
    La  la  la  la  la  la  la  la  la  la  la  laaaaaaaaaaaahh 
   


  e|----0-- ----0-- ----0-- ----0--|----0-- ----0-- ----0-- ----0--|
  B|----2-------2-------0-------0--|----2-------2-------2-------2--|
  G|----2-------2-------1-------1--|----2-------2-------2-------2--|
  D|-------------------------------|-------------------------------|
  A|-------------------------------|-------------------------------|
  E|-------------------------------|-------------------------------|

  e|------- ------- ------- -------|------- ------- ------- -------|
  B|-------------------------------|-------------------------------|
  G|-------------------------------|-------------------------------|
  D|------------2------------------|------------2---------------2--|
  A|0-------2/4-----------------2--|0-------2/4-----0-------2/4----|
  E|----------------0-------2/4----|-------------------------------|
        la  how the life        on                      Ob   La Di
                        goes




  e|----0-- ----0-- ----0-- ----0--|----0-- ----0-- ----2-- ----2--|
  B|----2-------2-------2-------2--|----0-------0-------2-------2--|
  G|----2-------2-------2-------2--|----1-------1-------2-------2--|
  D|-------------------------------|--------------------4-------4--|
  A|-------------------------------|-------------------------------|
  E|-------------------------------|-------------------------------|

  e|------- ------- ------- -------|------- ------- ------- -------|
  B|-------------------------------|-------------------------------|
  G|-------------------------------|-------------------------------|
  D|------------2---------------2--|2-----------2---4--------------|
  A|0-------2/4-----0-------2/4----|-------/4--------------/4---2--|
  E|-------------------------------|-------------------------------|
        Ob  La  Da      Life    on              bra             La
                            goes
    La  la  la  la  la  la  la  la  la  la  la  laaaaaaaaaaaahh


                                                    X   X X X X X

  e|----0-- ----0-- ----0-- ----0--|----0-- ----0-- ----0-- ----0--|
  B|----2-------2-------0-------0--|----2-------2-------2-------2--|
  G|----2-------2-------1-------1--|----2-------2-------2-------2--|
  D|-------------------------------|-------------------------------|
  A|-------------------------------|-------------------------------|
  E|-------------------------------|-------------------------------|

  e|------- ------- ------- -------|------- ------- ------- -------|
  B|-------------------------------|-------------------------------|
  G|-------------------------------|-------------------------------|
  D|------------2------------------|------------2------------------|
  A|0-------2/4-----------------2--|0-------2/4-----0----2--3---4--|
  E|----------------0-------2/4----|-------------------------------|
        la  how the life        on              Yeah 
                        goes



    01:18
    X
        D
  e|----2-- ----2-- ----2-- ----2--|----2-- ----2-- ----2-- ----2--|
  B|----3-------3-------3-------3--|----3-------3-------3-------3--|
  G|----2-------2-------2-------2--|----2-------2-------2-------2--|
  D|-------------------------------|-------------------------------|
  A|-------------------------------|-------------------------------|
  E|-------------------------------|-------------------------------|

  e|------- ------- ------- -------|------- ------- ------- -------|
  B|-------------------------------|-------------------------------|
  G|-------------------------------|-------------------------------|
  D|-------------------------------|-------------------------------|
  A|5-------5-------5-------5------|5------5--------5-------5---7--|
  E|----5-------5-------5-------5--|------------5-------5----------|
        In  couple  years   they    built   a   home    sweet   home
          a     of              have


        A
  e|----0-- ----0-- ----0-- ----0--|----0-- ----0-- ----0-- ----0--|
  B|----2-------2-------2-------2--|----2-------2-------2-------2--|
  G|----2-------2-------2-------2--|----2-------2-------2-------2--|
  D|-------------------------------|-------------------------------|
  A|-------------------------------|-------------------------------|
  E|-------------------------------|-------------------------------|

  e|------- ------- ------- -------|------- ------- ------- -------|
  B|-------------------------------|-------------------------------|
  G|-------------------------------|-------------------------------|
  D|-------------------------------|-------------------------------|
  A|-------------------------------|--------------------2---3---4--|
  E|5---0---5---0---5---0---5---0--|5---0---5---0---5--------------|
[ Tab from: http://www.guitartabs.cc/tabs/b/beatles/obladi_oblada_tab.html ]
  e|9---9-- ------- 7---7-- -------|5---5-- ------- 3---3-- -------|
  B|-------------------------------|-------------------------------|
  G|9---9-------9---7---7-------7--|6---6-------6---4---4-------4--|
  D|-------------------------------|-------------------------------|
  A|-------------------------------|-------------------------------|
  E|-------------------------------|-------------------------------|




        D
  e|----2-- ----2-- ----2-- ----2--|----2-- ----2-- ----2-- ----2--|
  B|----3-------3-------3-------3--|----3-------3-------3-------3--|
  G|----2-------2-------2-------2--|----2-------2-------2-------2--|
  D|-------------------------------|-------------------------------|
  A|-------------------------------|-------------------------------|
  E|-------------------------------|-------------------------------|

  e|------- ------- ------- -------|------- ------- ------- -------|
  B|-------------------------------|-------------------------------|
  G|-------------------------------|-------------------------------|
  D|-------------------------------|-------------------------------|
  A|5-------5-------5-------5------|5------5--------5---x---6---7--|
  E|----5-------5---------------5--|------------5------------------|

  e|2------ ------- ------- -------|------- ------- ------- -------|
  B|-------------------------------|-------------------------------|
  G|2------------------------------|-------------------------------|
  D|-------------------------------|-------------------------------|
  A|-------------------------------|-------------------------------|
  E|-------------------------------|-------------------------------|
        With    of  kids    running in      the yard            of
          A couple


        A                               E
  e|----0-- ----0-- ----0-- ----0--|----0-- ----0-- ----0-- 0---0--|
  B|----2-------2-------2-------2--|----0-------0-------0---0---0--|
  G|----2-------2-------2-------2--|----1-------1-------1---1---1--|
  D|-------------------------------|-------------------------------|
  A|-------------------------------|-------------------------------|
  E|-------------------------------|-------------------------------| 

  e|------- ------- ------- -------|------- ------- ------- -------|
  B|-------------------------------|-------------------------------|
  G|-------------------------------|-------------------------------|
  D|-------------------------------|-------------------------------|
  A|----7--------7------7-------7--|----7-------7-------5---4------|
  E|-------------------------------|----------------------------7--|
    Desmond and Molly           Jones
                                                    Ha  ha  ha  ha


    01:35
    Happy ever after in the market place 
    Desmond lets the children lend a hand 
    Molly stays at home and does her pretty face 
    And in the ...


  e|----0-- ----0-- ----0-- ----0--|----0-- ----0-- ----0-- ----0--|
  B|----2-------2-------0-------0--|----2-------2-------2-------2--|
  G|----2-------2-------1-------1--|----2-------2-------2-------2--|
  D|-------------------------------|-------------------------------|
  A|-------------------------------|-------------------------------|
  E|-------------------------------|-------------------------------|

  e|------- ------- ------- -------|------- ------- ------- -------|
  B|-------------------------------|-------------------------------|
  G|-------------------------------|-------------------------------|
  D|------------2------------------|------------2---------------2--|
  A|0-------2/4-----------------2--|0-------2/4-----0-------2/4----|
  E|----------------0-------2/4----|-------------------------------|

  e|------- ------- ------- -------|------- ------- ------- ----5--|
  B|-------------------------------|----------------5---7----------|
  G|-------------------------------|--------6-------------------2--|
  D|-------------------------------|----7-----------2---4----------|
  A|-------------------------------|--------4----------------------|
  E|-------------------------------|----5--------------------------|
    evening she still   in  with  band.         Yes!    Ob  la  di
                    sings       the

    
    01:52

  e|----0-- ----0-- ----0-- ----0--|----0-- ----0-- ----0-- ----0--|
  B|----2-------2-------2-------2--|----0-------0-------2-------2--|
  G|----2-------2-------2-------2--|----1-------1-------2-------2--|
  D|-------------------------------|--------------------4-------4--|
  A|-------------------------------|-------------------------------|
  E|-------------------------------|-------------------------------|

  e|------- ------- ------- -------|------- ------- ------- -------|
  B|-------------------------------|-------------------------------|
  G|-------------------------------|-------------------------------|
  D|------------2---------------2--|2-----------2---4--------------|
  A|0-------2/4-----0-------2/4----|-------/4--------------/4---2--|
  E|-------------------------------|-------------------------------|

  e|----5-- 7------ 9---5-- ----7--|----5-- 4------ 5------ -------|
  B|-------------------------------|--------------------7----------|
  G|----2---4-------6---2-------4--|----2---1-------2--------------|
  D|-------------------------------|--------------------4--------7-|
  A|-------------------------------|-------------------------------|
  E|-------------------------------|-----------------------------5-|
        Ob  La  Da      Life    on              bra             La
                            goes



  e|----0-- ----0-- ----0-- ----0--|----0-- ----0-- ----0-- ----0--|
  B|----2-------2-------0-------0--|----2-------2-------2-------2--|
  G|----2-------2-------1-------1--|----2-------2-------2-------2--|
  D|-------------------------------|-------------------------------|
  A|-------------------------------|-------------------------------|
  E|-------------------------------|-------------------------------|

  e|------- ------- ------- -------|------- ------- ------- -------|
  B|-------------------------------|-------------------------------|
  G|-------------------------------|-------------------------------|
  D|------------2------------------|------------2---------------2--|
  A|0-------2/4-----------------2--|0-------2/4-----0-------2/4----|
  E|----------------0-------2/4----|-------------------------------|

  e|------- ------- ------- -------|------- ------- ------- ----5--|
  B|----------------5---5----------|----------------5---7----------|
  G|--------6----------------------|--------6-------------------2--|
  D|----7-----------2---2-------7--|----7-----------2---4----------|
  A|--------4----------------------|--------4----------------------|
  E|----5-----------------------5--|----5--------------------------|
        la  how the life        on              Yeah    Ob   La Di
                        goes
                                        He  he  he  he


  e|----0-- ----0-- ----0-- ----0--|----0-- ----0-- ------- -------|
  B|----2-------2-------2-------2--|----0-------0-------2-------2--|
  G|----2-------2-------2-------2--|----1-------1-------2-------2--|
  D|-------------------------------|--------------------4-------4--|
  A|-------------------------------|-------------------------------|
  E|-------------------------------|-------------------------------|

  e|------- ------- ------- -------|------- ------- ------- -------|
  B|-------------------------------|-------------------------------|
  G|-------------------------------|-------------------------------|
  D|------------2---------------2--|2-----------2---4--------------|
  A|0-------2/4-----0-------2/4----|-------/4--------------/4---2--|
  E|-------------------------------|-------------------------------|

  e|----5-- 7------ 9---5-- ----7--|----5-- 4------ 5------ -------|
  B|-------------------------------|--------------------7----------|
  G|----2---4-------6---2-------4--|----2---1-------2--------------|
  D|-------------------------------|--------------------4--------7-|
  A|-------------------------------|-------------------------------|
  E|-------------------------------|-----------------------------5-|
        Ob  La  Da      Life    on              bra             La
                            goes



  e|----0-- ----0-- 0---0-- ----0--|----0-- ----0-- ------- -------|
  B|----2-------2---0---0-------0--|----2-------2------------------|
  G|----2-------2---1---1-------1--|----2-------2---(Backhand-gliss)
  D|-------------------------------|-------------------------------|
  A|-------------------------------|-------------------------------|
  E|-------------------------------|-------------------------------|

  e|------- ------- ------- -------|------- ------- ------- -------|
  B|-------------------------------|-------------------------------|
  G|-------------------------------|-------------------------------|
  D|------------2------------------|------------2------------------|
  A|0-------2/4-----------------2--|0-------2/4-----0---2---3---4--|
  E|----------------0-------2/4----|-------------------------------|

  e|------- ------- ------- -------|------- ------- ------- -------|
  B|----------------5---5----------|-------------------------------|
  G|--------6----------------------|-------------------------------|
  D|----7-----------2---2-------7--|-------------------------------|
  A|--------4----------------------|-------------------------------|
  E|----5-----------------------5--|-------------------------------|
        la  how the life        on             
                        goes

   
    02:09
    In a couple of years they have built 
    A home sweet home 
    With a couple of kids running in the yard 
    Of ...



  e|----0-- ----0-- ----0-- ----0--|----0-- ----0-- ----0-- 0---0--|
  B|----2-------2-------2-------2--|----0-------0-------0---0---0--|
  G|----2-------2-------2-------2--|----1-------1-------1---1---1--|
  D|-------------------------------|-------------------------------|
  A|-------------------------------|-------------------------------|
  E|-------------------------------|-------------------------------|

  e|------- ------- ------- -------|------- ------- ------- -------|
  B|-------------------------------|-------------------------------|
  G|-------------------------------|-------------------------------|
  D|-------------------------------|-------------------------------|
  A|----7--------7------7-------7--|----7-------7-------5---4------|
  E|-------------------------------|----------------------------7--|

  e|----7-- 5---4-- ------- -------|------- ------- ------- -------|
  B|----------------7---5----------|-------------------------------|
  G|------------------------7---6--|4------------------------------|
  D|-------------------------------|----7---6---4------------------|
  A|-------------------------------|----------------7---5---4------|
  E|-------------------------------|----------------------------7--|
    Desmond and Molly           Jones. 
                                        Ha  ha  ha  ha  ha  ha  ha


    02:26                                                            ....

  e|----0-- ----0-- ----0-- ----0--|----0-- ----0-- ----0-- ----0--|
  B|----2-------2-------2-------2--|----0-------0-------0-------0--|
  G|----2-------2-------2-------2--|----1-------1-------1-------1--|
  D|-------------------------------|-------------------------------|
  A|-------------------------------|-------------------------------|
  E|-------------------------------|-------------------------------|

  e|------- ------- ------- -------|------- ------- ------- -------|
  B|-------------------------------|-------------------------------|
  G|-------------------------------|-------------------------------|
  D|------------2---------------2--|-------------------------------|
  A|0-------2/4-----0-------2/4----|------------2---------------2--|
  E|-------------------------------|0-------2/4-----0-------2/4----|
    Happy   ever    after   in  the market      place
    ha  ha  ha
 


  e|----0-- ----0-- ----0-- ----0--|----0-- ----0-- ----0-- ----0--|
  B|----0-------0-------0-------0--|----2-------2-------2-------2--|
  G|----1-------1-------1-------1--|----2-------2-------2-------2--|
  D|-------------------------------|-------------------------------|
  A|-------------------------------|-------------------------------|
  E|-------------------------------|-------------------------------|

  e|------- ------- ------- -------|------- ------- ------- -------|
  B|-------------------------------|-------------------------------|
  G|-------------------------------|-------------------------------|
  D|-------------------------------|------------2---------------2--|
  A|------------2---------------2--|0-------2/4-----0-------2/4----|
  E|0-------2/4-------------2/4----|-------------------------------|

  e|------- ------- ------- -------|------- ------- -----12 -------|
  B|-------------------------------|------5------------14-----14---|
  G|-------------------------------|----6-----6-----14----------14-|
  D|-------------------------------|7-----------7------------------|
  A|-------------------------------|-------------------------------|
  E|-------------------------------|-------------------------------|
    Molly   lets    children    a   hand 
                the         lend



  e|----0-- ----0-- ----0-- ----0--|----2-- ----2-- ----2-- ----2--|
  B|----2-------2-------2-------2--|----3-------3-------3-------3--|
  G|----2-------2-------2-------2--|----2-------2-------2-------2--|
  D|-------------------------------|-------------------------------|
  A|-------------------------------|-------------------------------|
  E|-------------------------------|-------------------------------|

  e|------- ------- ------- -------|------- ------- ------- -------|
  B|-------------------------------|-------------------------------|
  G|-------------------------------|------------2---------------2--|
  D|------------2---------------2--|0-------2/4-----0-------2/4----|
  A|0-------2/4-----0-------2/4----|-------------------------------|
  E|-------------------------------|-------------------------------|

  e|------- ------- ------- -------|------- ------- ------5 -------|
  B|-------------------------------|--------------------7-----7----|
  G|-------------------------------|------2---------7-----------7--|
  D|-------------------------------|----4-----4--------------------|
  A|-------------------------------|5-----------5------------------|
  E|-------------------------------|-------------------------------|
    Desmond stays   home    does    pretty      face    and in  the
               at      and     his



  e|----0-- ----0-- ----0-- ----0--|----0-- ----0-- ----0-- ----0--|
  B|----2-------2-------0-------0--|----2-------2-------2-------2--|
  G|----2-------2-------1-------1--|----2-------2-------2-------2--|
  D|-------------------------------|-------------------------------|
  A|-------------------------------|-------------------------------|
  E|-------------------------------|-------------------------------|

  e|------- ------- ------- -------|------- ------- ------- -------|
  B|-------------------------------|-------------------------------|
  G|-------------------------------|-------------------------------|
  D|------------2------------------|------------2---------------2--|
  A|0-------2/4-----------------2--|0-------2/4-----0-------2/4----|
  E|----------------0-------2/4----|-------------------------------|

  e|------- ------- ------- -------|------- ------- ------- ----5--|
  B|-------------------------------|----------------5---7----------|
  G|-------------------------------|--------6-------------------2--|
  D|-------------------------------|----7-----------2---4----------|
  A|-------------------------------|--------4----------------------|
  E|-------------------------------|----5--------------------------| ...
    evening she's   singer  with  band                  Ob  la  di
                A               the

   
    02:43
         oblada life goes on bra 
    Lala how the life goes on Yeah 
    Obladi Oblada life goes on bra 
    Lala how the life goes on. 


    02:58  

    F#m
  e|2---2-- ----2-- 2---2-- ----2--|2---2-- ----2-- ----2-- ----2--|
  B|2---2-------2---2---2-------2--|2---2-------2-------2-------2--|
  G|2---2-------2---2---2-------2--|2---2-------2-------2-------2--|
  D|4---4-------4---4---4-------4--|4---4-------4-------4-------4--|
  A|-------------------------------|-------------------------------|
  E|-------------------------------|-------------------------------|

  e|------- ------- ------- -------|------- ------- ------- -------|
  B|-------------------------------|-------------------------------|
  G|-------------------------------|-------------------------------|
  D|4---------------4--------------|4---------------4--------------|
  A|--------4---------------4------|--------4---------------4------|
  E|-------------------------------|-------------------------------|

                              And you   some                    take
                                If  want    fun
            Ha  ha  ha  ha  ha  ha          ha  ha  ha  ha  ha  ha


                           (.
    E               A
  e|0---0-- 0---0-- 0------ 9------|------- ------- ------- -------|
  B|0---0---0---0---2------10------|-------------------------------|
  G|1---1---1---1---2-------9------|-------------------------------|
  D|-------------------------------|-------------------------------|
  A|-------------------------------|-------------------------------|
  E|-------------------------------|-------------------------------|

  e|------- ------- ------- -------|------- ------- ------- -------|
  B|-------------------------------|-------------------------------|
  G|-------------------------------|-------------------------------|
  D|2---0--------------------------|-------------------------------|
  A|--------4---2---0--------------|-------------------------------|
  E|-------------------------------|-------------------------------|

                                        Thank you
    ha  ha  ha  ha
   






        B  Bend
        R  Release
        /  Slide up
        \  Slide down
        H  Hammer-on
        P  Pull-off
        ~  Vibrato
        +  Harmonic
        x  Mute note
        .  Play note like a dot in standard notation
        ^  Ties two notes together
        (. Pause



Comments