Beatles - Nowhere Man Chords & Tabs

 

Nowhere Man Chords & Tabs

Beatles Chords & Tabs

Version: 2 Type: Tab 0 ratings
1 star 2 stars 3 stars 4 stars 5 stars
comments

Nowhere Man Tab

   
---------------------------------------------------------------

  THE BEATLES - NOWHERE MAN (Lennon/McCartney) from RUBBER SOUL 
                album. Released December 3rd 1965.

---------------------------------------------------------------

  Tabbed by:PJVillanueva




  I had already tabbed this song a couple of years ago, but the
  format I used didn't make it justice, so here it is again with
  a better look and a few corrections.
  After I'M A LOSER  and HELP this is John's 3rd self confession.
  Although three Middle Eights seem a bit excessive, those vocal
  harmonies, that simple and glowing Stratocaster solo, Ringo's
  roll fills and Paul's playfull walking bass make it one of my 
  all time favourites. 
  



He's a real Nowhere Man,
Sitting in his Nowhere Land,
Making all his nowhere plans for nobody.

Doesn't kave a point of view,
Knows not where he's going to,
Isn't he a bit like you and me?

Nowhere Man, please listen,
You don't know what you're missing,
Nowhere Man, the world is at your command.

   SOLO

He's as blind as he can be,
Just sees what he wants to see,
Nowhere Man can you see me at all?

Nowhere Man, don't worry,
Take your time, don't hurry,
Leave it all till somebody else
lends you a hand.

Doesn't have a point of view,
Knows not where he's going to,
Isn't he a bit like you and me?

Middle eight
Nowhere Man, please listen,
You don't know what you're missing,
Nowhere Man, the world is at your command.

He's a real Nowhere Man,
Sitting in his Nowhere Land,
Making all his nowhere plans for nobody.
Making all his nowhere plans for nobody.
Making all his nowhere plans for nobody.




  Use a capo on the 2nd fret for rythm guitar



  INTRO

e|------- ------- ------- -------|------- ------- ------- -------|
B|-------------------------------|-------------------------------|
G|-------------------------------|-------------------------------|
D|-------------------------------|-------------------------------|
A|-------------------------------|-------------------------------|
E|-------------------------------|-------------------------------|
  He's    a       real            nowhere         man,


                                                              Em7
e|------- ------- ------- -------|------- ------- ------- ----0--|
B|-------------------------------|----------------------------3--|
G|-------------------------------|----------------------------0--|
D|-------------------------------|----------------------------2--|
A|-------------------------------|----------------------------2--|
E|-------------------------------|----------------------------0--|
  Sitting     in          his     nowhere         land,

  
  00:08                           Gm
e|------- 0------ 0---0-- 0------|3------ 3---3-- ----3-- 3------|
B|--------3-------3---3---3---0--|3-------3---3-------3---3------|
G|--------0-------0---0---0---0--|3-------3---3-------3---3------|
D|--------2-------2---2---2---0--|5-------5---5-------5---5------|
A|--------2-------2---2---2------|5-------5---5-------5---5------|
E|--------0-------0---0---0------|-------------------------------|     
  Making      all         his     nowhere         plans       for 


  D
e|2------ 2------ 2---2-- 2---2--|2------ 2------ ----2-- 2---2--|
B|3-------3-------3---3---3---3--|3-------3-----------3---3---3--|
G|2-------2-------2---2---2---2--|2-------2-----------2---2---2--|
D|0-------0-------0---0---0---0--|0-------0-----------0---0---0--|
A|-------------------------------|-------------------------------|
E|-------------------------------|-------------------------------|
  nobody.                         E7sus2
e|------- ------- ------- -------|2------ ------- ------- -------|
B|-------------------------------|3------------------------------|
G|-------------------------------|4-----------2-------1----------|
D|-------------------------------|2---------------------------2--|
A|-------------------------------|2------------------------------|
E|-------------------------------|-------------------------------|


  VERSE
  00:16                       A
e|2------ 2------ 2---2-- 2---0--|0------ 0---0-- ----0-- -------|
B|3-------3-------3---3---3---2--|2-------2---2-------2-------0--|
G|2-------2-------2---2---2---2--|2-------2---2-------2-------0--|     
D|0-------0-------0---0---0---2--|2-------2---2-------2-------0--|
A|----------------------------0--|0-------0---0-------0----------|
E|-------------------------------|-------------------------------|
  Doesn't     have        a       point       view,
                                      of
e|------- ------- ------- -------|------- ------- ------- -------|
B|-------------------------------|-------------------------------|
G|-------------------------------|-------------------------------|
D|-------------------------------|-------------------------------|
A|2------------------------------|-------------------------------|
E|-------------------------------|-------------------------------|



      G                           D                           Em
e|----3-- ----3-- ----3-- 3---3--|2------ 2---2-- 2---2-- 2---0--|
B|----3-------3-------3---3---3--|3-------3---3---3---3---3---0--|      
G|----0-------0-------0---0---0--|2-------2---2---2---2---2---0--|
D|----0-------0-------0---0---0--|0-------0---0---0---0---0---2--|
A|----2-------2-------2---2---2--|----------------------------2--|
E|----3-------3-------3---3---3--|----------------------------0--|
  Knows   not     where   he's    going       to,


              Em7                 Gm
e|0---0-- ----0-- ----0-- 0------|3---3-- 3---3-- 3---3-- 3------|
B|0---0-------3-------3---3------|3---3---3---3---3---3---3------|
G|0---0-------0-------0---0------|3---3---3---3---3---3---3------|
D|2---2-------2-------2---2------|5---5---5---5---5---5---5------|
A|2---2-------2-------2---2------|5---5---5---5---5---5---5------|
E|0---0-------0-------0---0------|3---3---3---3---3---3---3------|
  Isn't       he          a   bit     like    you         and 


  D                                                           F#m
e|2------ 2------ ----2-- ----2--|----2-- ----2-- ----2-- ----2--|
B|3-------3-----------3-------3--|----3-------3-------3-------2--|
G|2-------2-----------2-------2--|----2-------2-------2-------2--|
D|0-------0-----------0-------0--|----0-------0-------0-------4--|
A|-------------------------------|----------------------------4--|
E|-------------------------------|----------------------------2--|
  me?                                             Nowhere     man,
e|------- ------- ------- -------|------- ------- ------- -------|
B|-------------------------------|-------------------------------|
G|4-----------2-------1----------|-------------------------------|
D|2---------------------------2--|-------------------------------|
A|2------------------------------|2------------------------------|
E|-------------------------------|-------------------------------|


  MIDDLE EIGHT
  00:32                           G        
e|----2-- 2------ 2---2-- 2------|3------ 3---3-- ----3-- 3------|
B|----2---2-------2---2---2------|3-------3---3-------3---3------|
G|----2---2-------2---2---2------|0-------0---0-------0---0------|
D|----4---4-------4---4---4------|0-------0---0-------0---0------|
A|----4---4-------4---4---4------|2-------2---2-------2---2------|
E|----2---2-------2---2---2------|3-------3---3-------3---3------|
                      please      listen,         You don't   know 


  F#m                             G
e|2------ 2------ 2---2-- 2------|3---3-- 3------ ----3-- 3------|
B|2-------2-------2---2---2------|3---3---3-----------3---3------|
G|2-------2-------2---2---2------|0---0---0-----------0---0------|
D|4-------4-------4---4---4------|0---0---0-----------0---0------|
A|4-------4-------4---4---4------|2---2---2-----------2---2------|
E|2-------2-------2---2---2------|3---3---3-----------3---3------|
                  what you're     missing,            Nowhere


  F#m                             Em7
e|2------ 2------ 2---2-- 2------|0---0-- 0------ 0---0-- 0---0--|
B|2-------2-------2---2---2------|3---3---3-------3---3---3---3--|
G|2-------2-------2---2---2------|0---0---0-------0---0---0---0--|
D|4-------4-------4---4---4------|2---2---2-------2---2---2---2--|
A|4-------4-------4---4---4------|2---2---2-------2---2---2---2--|
E|2-------2-------2---2---2------|0---0---0-------0---0---0---0--|
  Man                         the world                       is


                                  A
e|----0-- 0------ 0------ 0---0--|0---0-- 0------ 0---0-- 0------|
B|----3---3-------3-------3---3--|2---2---2-------2---2---2------|
G|----0---0-------0-------0---0--|2---2---2-------2---2---2------|
D|----2---2-------2-------2---2--|2---2---2-------2---2---2------|
A|----2---2-------2-------2---2--|0---0---0-------0---0---0------|
E|----0---0-------0-------0---0--|-------------------------------|
  At  your    command 


  SOLO    (Remember that the solo guitar is not capoed)
  00:47
e|2------ 2---2-- 2---2-- 2---0--|0------ 0------ 0---0-- 0---3--|
B|3-------3---3---3---3---3---2--|2-------2-------2---2---2---3--|
G|2-------2---2---2---2---2---2--|2-------2-------2---2---2---0--|     
D|0-------0---0---0---0---0---2--|2-------2-------2---2---2---0--|
A|----------------------------0--|0-------0-------0---0---0---2--|
E|-------------------------------|----------------------------3--|

e|0------ ------- ------- -------|------- ----2-- ------- -------|
B|0-----------0------------------|4---5--------------------------|
G|1------------------------------|4------------------------------|
D|2------------------------------|4------------------------------|
A|-------------------------------|-------------------------------|
E|-------------------------------|-------------------------------|




e|----3-- ----3-- 3---3-- 3---3--|2------ 2---2-- ----2-- 2------|
B|----3-------3---3---3---3---3--|3-------3---3-------3---3------|      
G|----0-------0---0---0---0---0--|2-------2---2-------2---2------|
D|----0-------0---0---0---0---0--|0-------0---0-------0---0------|
A|----2-------2---2---2---2---2--|-------------------------------|
E|----3-------3---3---3---3---3--|-------------------------------|

e|0------ ------- ------- -------|------- ------- ------- -------|
B|2---2--------------------------|0---0-------0------------------|
G|2-----------2-----------2------|1---2-----/-4------------------|
D|2------------------------------|2---2-------6------------------|     
A|-------------------------------|-------------------------------|
E|-------------------------------|-------------------------------|




e|0---0-- ----0-- ----0-- 0------|3---3-- 3---3-- 3---3-- 3---3--|
B|3---3-------3-------3---3------|3---3---3---3---3---3---3---3--|
G|0---0-------0-------0---0------|3---3---3---3---3---3---3---3--|
D|2---2-------2-------2---2------|5---5---5---5---5---5---5---5--|
A|2---2-------2-------2---2------|5---5---5---5---5---5---5---5--|
E|0---0-------0-------0---0------|3---3---3---3---3---3---3---3--|

e|------- ------- ------- -------|------- ------- ------- -------|
B|-------------------------------|-------------------------------|
G|2---2--------------------------|2---2--------------------------|
D|2-----------4------------------|2------------------------------|
A|0------------------------------|0-----------3------------------|
E|-------------------------------|-------------------------------|




e|2------ 2---2-- 2---2-- ----2--|----2-- ----2-- 2---2-- 2---2--|
B|3-------3---3---3---3-------3--|----3-------3---3---3---3---3--|
G|2-------2---2---2---2-------2--|----2-------2---2---2---2---2--|
D|0-------0---0---0---0-------0--|----0-------0---0---0---0---0--|
A|-------------------------------|-------------------------------|
E|-------------------------------|-------------------------------|
                                          *
e|------- ------- ------- -------|------- 5------ ------- -------|
B|-------------------------------|-------------------------------|
G|-------------------------------|-------------------------------|
D|-------------------------------|-------------------------------|
A|3---2--------------------------|-------------------------------|
E|------------------------7-\----|0------------------------------|


  VERSE
  01:03
e|2------ 2------ 2---2-- 2------|0---0-- 0------ 0---0-- 0------|
B|3-------3-------3---3---3------|2---2---2-------2---2---2---0--|
G|2-------2-------2---2---2------|2---2---2-------2---2---2---0--|
D|0-------0-------0---0---0------|2---2---2-------2---2---2---0--|
A|-------------------------------|0---0---0-------0---0---0------|
E|-------------------------------|-------------------------------|
  He's    as      blind   as      he  can     be,


     
e|3---3-- 3------ 3---3-- ----3--|2---2-- 2---2-- ----2-- 2---0--|
B|3---3---3---3---3---3---3---3--|3---3---3---3-------3---3---0--|
G|0---0---0---0---0---0---0---0--|2---2---2---2-------2---2---0--|
D|0---0---0---0---0---0---0---0--|0---0---0---0-------0---0---2--|
A|2---2---2---2---2---2---2---2--|----------------------------2--|
E|3---3---3---3---3---3---3---3--|----------------------------0--|
  Just    sees    what    he      wants   to  see,


                             
e|----0-- ----0-- 0---0-- 0------|3---3-- 3---3-- 3---3-- 3------|
B|----0-------0---3---3---3------|3---3---3---3---3---3---3------|
G|----0-------0---0---0---0------|3---3---3---3---3---3---3------|
D|----2-------2---2---2---2------|5---5---5---5---5---5---5------|
A|----2-------2---2---2---2------|5---5---5---5---5---5---5------|
E|----0-------0---0---0---0------|3---3---3---3---3---3---3------|
  Nowhere     man         can     you     see     me     at  


[ Tab from: http://www.guitartabs.cc/tabs/b/beatles/nowhere_man_tab_ver_2.html ]
e|2------ 2---2-- 2---2-- 2---2--|----2-- ----2-- ----2-- 2---2--|
B|3-------3---3---3---3---3---3--|----3-------3-------3---3---2--|
G|2-------2---2---2---2---2---2--|----2-------2-------2---2---2--|
D|0-------0---0---0---0---0---0--|----0-------0-------0---0---4--|
A|-------------------------------|----------------------------4--|
E|-------------------------------|----------------------------2--|
  all?                                            Nowhere     man,
e|------- ------- ------- -------|------- ------- ------- -------|
B|-------------------------------|-------------------------------|
G|4-----------2-------1----------|-------------------------------|
D|2---------------------------2--|2------------------------------|
A|-------------------------------|2------------------------------|
E|-------------------------------|-------------------------------|


  MIDDLE EIGHT
  01:19                                     
e|2------ 2---2-- 2---2-- 2---2--|----3-- ----3-- ----3-- 3------|
B|2-------2---2---2---2---2---2--|----3-------3-------3---3------|
G|2-------2---2---2---2---2---2--|----0-------0-------0---0------|
D|4-------4---4---4---4---4---4--|----0-------0-------0---0------|
A|4-------4---4---4---4---4---4--|----2-------2-------2---2------|
E|2-------2---2---2---2---2---2--|----3-------3-------3---3------|
                      don't       worry           take your   time,



e|2---2-- 2---2-- ------- 2------|3---3-- 3---3-- 3------ 3------|
B|2---2---2---2-----------2------|3---3---3---3---3-------3------|
G|2---2---2---2-----------2------|0---0---0---0---0-------0------|
D|4---4---4---4-----------4------|0---0---0---0---0-------0------|
A|4---4---4---4-----------4------|2---2---2---2---2-------2------|
E|2---2---2---2-----------2------|3---3---3---3---3-------3------|
                      don't       hurry               Leave   it      


  
e|2---2-- 2---2-- ----2-- 2------|----0-- ----0-- ----0-- 0---0--|
B|2---2---2---2-------2---2------|----3-------3-------3---3---3--|
G|2---2---2---2-------2---2------|----0-------0-------0---0---0--|
D|4---4---4---4-------4---4------|----2-------2-------2---2---2--|
A|4---4---4---4-------4---4------|----2-------2-------2---2---2--|
E|2---2---2---2-------2---2------|----0-------0-------0---0---0--|
  All                         till            else            lends
                                  somebody    
 
                              
e|0---0-- 0---0-- 0------ 0---0--|0------ 0---0-- 0---0-- 0------|
B|3---3---3---3---3-------3---3--|2-------2---2---2---2---2------|
G|0---0---0---0---0-------0---0--|2-------2---2---2---2---2------|
D|2---2---2---2---2-------2---2--|2-------2---2---2---2---2------|
A|2---2---2---2---2-------2---2--|0-------0---0---0---0---0------|
E|0---0---0---0---0-------0---0--|-------------------------------|
      you     a   hand
e|------- ------- ------- -------|------- ------- ------- -------|
B|-------------------------------|-------------------------------|
G|-------------------------------|-------------------------------|
D|-------------------------------|-------------------------------|
A|--------------------9---9---9--|9-------9---9---9---9---9---9--|
E|--------------------7---7---7--|7-------7---7---7---7---7---7--|


  VERSE
  01:35
e|2------ 2------ 2---2-- ----0--|----0-- 0---0-- ----0-- ----3--|
B|3-------3-------3---3-------2--|----2---2---2-------2-------3--|
G|2-------2-------2---2-------2--|----2---2---2-------2-------0--|
D|0-------0-------0---0-------2--|----2---2---2-------2-------0--|
A|----------------------------0--|----0---0---0-------0-------2--|
E|-------------------------------|----------------------------3--|
  Doesn't     have        a       point       view,
                                      of
e|------- ------- ------- -------|------- ------- ------- -------|
B|-------------------------------|-------------------------------|
G|-------------------------------|-------------------------------|
D|2------------------------------|-------------------------------|
A|2------------------------------|-------------------------------|
E|0------------------------------|-------------------------------|



      
e|----3-- 3---3-- ----3-- 3---3--|----2-- 2---2-- 2---2-- 2---0--|
B|----3---3---3-------3---3---3--|----3---3---3---3---3---3---0--|
G|----0---0---0-------0---0---0--|----2---2---2---2---2---2---0--|
D|----0---0---0-------0---0---0--|----0---0---0---0---0---0---2--|
A|----2---2---2-------2---2---2--|----------------------------2--|
E|----3---3---3-------3---3---3--|----------------------------0--|
  Knows   not     where   he's    going       to,


      
e|----0-- ----0-- ----0-- 0------|3---3-- 3---3-- 3---3-- 3------|
B|----3-------3-------3---3------|3---3---3---3---3---3---3---0--|
G|----0-------0-------0---0------|3---3---3---3---3---3---3---0--|
D|----2-------2-------2---2------|5---5---5---5---5---5---5---0--|   
A|----2-------2-------2---2------|5---5---5---5---5---5---5------|
E|----0-------0-------0---0------|3---3---3---3---3---3---3------|
  Isn't       he          a   bit     like    you         and 


  
e|2---2-- 2---2-- ----2-- ----2--|----2-- 2---2-- ----2-- 2---2--|
B|3---3---3---3-------3-------3--|----3---3---3-------3---3---2--|
G|2---2---2---2-------2-------2--|----2---2---2-------2---2---2--|
D|0---0---0---0-------0-------0--|----0---0---0-------0---0---4--|
A|-------------------------------|----------------------------4--|
E|-------------------------------|----------------------------2--|
  me?                                             Nowhere     man,
e|------- ------- ------- -------|------- ------- ------- -------|
B|-------------------------------|-------------------------------|
G|4-----------2-------1----------|-------------------------------|
D|----------------------------2--|2------------------------------|
A|-------------------------------|2------------------------------|
E|-------------------------------|-------------------------------|


  MIDDLE EIGHT
  01:51                                
e|------- 2------ 2---2-- 2---2--|3---3-- 3---3-- ----3-- 3------|
B|--------2-------2---2---2---2--|3---3---3---3-------3---3------|
G|--------2-------2---2---2---2--|0---0---0---0-------0---0------|
D|--------4-------4---4---4---4--|0---0---0---0-------0---0------|
A|--------4-------4---4---4---4--|2---2---2---2-------2---2------|
E|--------2-------2---2---2---2--|3---3---3---3-------3---3------|
                      please,     listen          You don't   know 

 

e|2---2-- ----2-- ----2-- 2---2--|3---3-- 3---3-- ----3-- 3------|
B|2---2-------2-------2---2---2--|3---3---3---3-------3---3------|
G|2---2-------2-------2---2---2--|0---0---0---0-------0---0------|
D|4---4-------4-------4---4---4--|0---0---0---0-------0---0------|
A|4---4-------4-------4---4---4--|2---2---2---2-------2---2------|      
E|2---2-------2-------2---2---2--|3---3---3---3-------3---3------|  
                  what you're     missing,        Nowhere     man


 
e|2---2-- 2------ 2---2-- 2------|0------ 0---0-- 0------ 0------|
B|2---2---2-------2---2---2------|3-------3---3---3-------3------|
G|2---2---2-------2---2---2------|0-------0---0---0-------0------|
D|4---4---4-------4---4---4------|2-------2---2---2-------2------|
A|4---4---4-------4---4---4------|2-------2---2---2-------2------|
E|2---2---2-------2---2---2------|0-------0---0---0-------0------|     
                              the world                       is


                                  
e|0---0-- 0------ 0---0-- 0---0--|0---0-- 0---0-- 0------ 0---0--|
B|3---3---3-------3---3---3---3--|2---2---2---2---2-------2---2--|
G|0---0---0-------0---0---0---0--|2---2---2---2---2-------2---2--|
D|2---2---2-------2---2---2---2--|2---2---2---2---2-------2---2--|
A|2---2---2-------2---2---2---2--|0---0---0---0---0-------0---0--|
E|0---0---0-------0---0---0---0--|-------------------------------|      
  At  your    command 
e|------- ------- ------- -------|------- ------- ------- -------|
B|-------------------------------|-------------------------------|
G|-------------------------------|-------------------------------|
D|-------------------------------|-------------------------------|
A|------------9---9---9---9---9--|9---9---9---9---9---9---9---9--|
E|------------7---7---7---7---7--|7---7---7---7---7---7---7---7--|


  CODA
  02:07
  D                           A
e|2------ 2------ 2---2-- 2---0--|0------ 0------ 0---0-- 0------|
B|3-------3-------3---3---3---2--|2-------2-------2---2---2---0--|
G|2-------2-------2---2---2---2--|2-------2-------2---2---2---0--|
D|0-------0-------0---0---0---2--|2-------2-------2---2---2---0--|
A|----------------------------0--|0-------0-------0---0---0------|
E|-------------------------------|-------------------------------|
  He's    a       real            nowhere         man
e|------- ------- ------- -------|------- ------- ------- -------|
B|-------------------------------|-------------------------------|
G|-------------------------------|-------------------------------|
D|2------------------------------|-------------------------------|
A|2------------------------------|-------------------------------|
E|0------------------------------|-------------------------------|



  G                               D                           Em
e|3------ 3------ 3---3-- 3---3--|2---2-- 2------ 2---2-- 2---0--|
B|3-------3-------3---3---3---3--|3---3---3-------3---3---3---0--|   
G|0------ 0------ 0---0-- 0---0--|2---2---2-------2---2---2---0--|
D|0------ 0------ 0---0-- 0---0--|0---0---0-------0---0---0---2--|
A|2-------2-------2---2---2---2--|----------------------------2--|
E|3-------3-------3---3---3---3--|----------------------------0--|
  Sitting     in          his     nowhere         land


      Em7                         Gm
e|----0-- ----0-- 0---0-- 0------|3---3-- 3---3-- 3---3-- 3------|
B|----3-------3---3---3---3------|3---3---3---3---3---3---3------|
G|----0------ 0---0-- 0---0------|3---3---3---3---3---3---3------|
D|----2-------2---2---2---2------|5---5---5---5---5---5---5------|
A|----2-------2---2---2---2------|5---5---5---5---5---5---5------|
E|----0------ 0---0-- 0---0------|3---3---3---3---3---3---3------|
  Making      all         his     nowhere         plans       for 


  D                                                           Em
e|2---2-- 2------ ----2-- 2---2--|2---2-- ----2-- ----2-- 0---0--|
B|3---3---3-----------3---3---3--|3---3-------3-------3---0---0--|
G|2---2---2-----------2---2---2--|2---2-------2-------2---0---0--|
D|0---0-- 0-----------0---0---0--|0---0-------0-------0-------2--|
A|-------------------------------|----------------------------2--|
E|-------------------------------|----------------------------0--|
  nobody.
e|------- ------- ------- -------|------- ------- ------- -------|
B|-------------------------------|-------------------------------|
G|-------------------------------|4-----------2-------1----------|
D|-------------------------------|----------------------------2--|
A|-------------------------------|-------------------------------|
E|-------------------------------|-------------------------------|



                  Em7             Gm
e|0------ 0------ 0---0-- 0---0--|3---3-- 3---3-- ----3-- 3---3--|
B|0-------0-------3---3---3---3--|3---3---3---3-------3---3---3--|
G|0-------0-------0---0---0---0--|3---3---3---3-------3---3---3--|
D|2-------2-------2---2---2---2--|5---5---5---5-------5---5---5--|
A|2-------2-------2---2---2---2--|5---5---5---5-------5---5---5--|
E|0-------0-------0---0---0---0--|3---3---3---3-------3---3---3--|
  Making      all         his     nowhere         plans       for
e|------- ------- ------- -------|------- ------- ------- -------|
B|-------------------------------|-------------------------------|
G|-------------------------------|2------------------------------|
D|4------------------------------|-------------------------------|
A|-------------------------------|-------------------------------|
E|-------------------------------|-------------------------------|

 

  D                                                           Em
e|2------ 2------ 2---2-- 2---2--|----2-- ----2-- ----2-- 2---0--|
B|3-------3-------3---3---3---3--|----3-------3-------3---3---0--|
G|2-------2-------2---2---2---2--|----2-------2-------2---2---0--|
D|0-------0-------0---0---0---0--|----0-------0-------0---0---2--|
A|-------------------------------|----------------------------2--|
E|-------------------------------|----------------------------0--|
  nobody.
e|------- ------- ------- -------|------- ------- ------- -------|
B|-------------------------------|-------------------------------|
G|4------------------------------|4-----------2-------1----------|
D|-------------------------------|----------------------------2--|
A|-------------------------------|-------------------------------|
E|-------------------------------|-------------------------------|


  02:31
                  Em7             Gm   
e|0------ 0------ 0---0-- 0------|3---3-- 3------ 3---3-- 3------|
B|0-------0-------3---3---3------|3---3---3-------3---3---3------|
G|0-------0-------0---0---0------|3---3---3-------3---3-- 3------|
D|2-------2-------2---2---2------|5---5---5-------5---5---5------|
A|2-------2-------2---2---2------|5---5---5-------5---5---5------|
E|0-------0-------0---0---0------|3---3---3-------3---3---3------|
  Making      all         his     nowhere     plans       for 
e|------- ------- ------- -------|------- ------- ------- -------|
B|-------------------------------|-------------------------------|
G|-------------------------------|2------------------------------|
D|4------------------------------|-------------------------------|
A|-------------------------------|-------------------------------|
E|-------------------------------|-------------------------------|



  D                              (.
e|2------ 2------ 2---2-- 2---2--|2------ ------- ------- -------|
B|3-------3-------3---3---3---3--|3------------------------------|
G|2-------2-------2---2---2---2--|2------------------------------|
D|0-------0-------0---0---0---0--|0------------------------------|
A|-------------------------------|0------------------------------|
E|-------------------------------|-------------------------------|
  nobody.                        (.
e|------- ------- ------- -------|------- ------- ------- -------|
B|-------------------------------|-------------------------------|
G|4-----------2-------1----------|-------------------------------|
D|----------------------------2--|-------------------------------|
A|-------------------------------|2------------------------------|
E|-------------------------------|0------------------------------|








        B  Bend
        R  Release
        /  slide up
        \  slide down
        H  hammer-on
        P  pull-off
        ~  vibrato
        *  harmonic
        x  Mute note
        . - play note like a dot in standard notation
        ^ - ties two notes together
        (. Pause



Comments