Beatles - Nothin Shakin Chords & Tabs

 

Nothin Shakin Chords & Tabs

Beatles Chords & Tabs

Version: 2 Type: Bass Tab 0 ratings
1 star 2 stars 3 stars 4 stars 5 stars
comments

Nothin Shakin Bass Tab

NOTHIN’ SHAKIN’

Written by Eddie Fontaine, Ciriono Calacrai, Dianne Lampert & Jack Cleveland
From The Beatles Live At The BBC

INTRO
  t=236
G|---------------------------------|---------------------------------|
D|---------------------------------|-----------------4-------6-------|
A|---------------------------------|---------7-----------------------|
E|---------------------------------|---------------------------------|

G|---------------------------------|---------------------------------|
D|-7-----------7-------------------|-7-----------7-------------------|
A|-----------------7---------------|-----------------7---------------|
E|---------------------------------|---------------------------------|

G|---------------------------------|---------------------------------|
D|-7-----------7-------------------|-7---------------4-------6-------|
A|-----------------7-----------7---|---------7-----------------------|
E|---------------------------------|---------------------------------|

G|---------------------------------|---------------------------------|
D|-7-----------7-------------------|-7-----------7-------------------|
A|-----------------7-----------7---|-----------------7---------------|
E|---------------------------------|---------------------------------|

G|---------------------------------|---------------------------------|
D|-9-------7-------6-------4-------|-----------------4-------6-------|
A|---------------------------------|-7-------7-----------------------|
E|---------------------------------|---------------------------------|

VERSE

G|---------------------------------|---------------------------------|
D|-7-----------7-------------------|-7-----------7-------------------|
A|-----------------7---------------|-----------------7---------------|
E|---------------------------------|---------------------------------|

G|---------------------------------|---------------------------------|
D|-7-----------7-------------------|-7---------------4-------6-------|
A|-----------------7-----------7---|---------7-----------------------|
E|---------------------------------|---------------------------------|

G|---------------------------------|---------------------------------|
D|-7-----------7-------------------|-7-----------7-------------------|
A|-----------------7---------------|-----------------7---------------|
E|---------------------------------|---------------------------------|

G|---------------------------------|---------------------------------|
D|-7-----------7-------------------|-7-------------------------------|
A|-----------------7-----------7---|-------------------------4-------|
E|---------------------------------|---------5-------7---------------|

G|---------------------------------|---------------------------------|
D|---------------------------------|---------------------------------|
A|-5-------------------------------|-5-------------------------------|
E|-----------------5---------------|-----------------5---------------|

G|---------------------------------|---------------------------------|
D|---------------------------------|-----------------4-------6-------|
A|-5-------------------------------|-5-------7-----------------------|
E|-----------------5---------------|---------------------------------|

G|---------------------------------|---------------------------------|
D|-7-----------7-------------------|-7-----------7-------------------|
A|-----------------7---------------|-----------------7---------------|
E|---------------------------------|---------------------------------|

G|---------------------------------|---------------------------------|
D|-7-----------7-------------------|-7-------7-------6-------4-------|
A|-----------------7---------------|---------------------------------|
E|---------------------------------|---------------------------------|

G|---------------------------------|---------------------------------|
D|-----------------9---------------|-----------------9---------------|
A|-7-----------7-------------------|-7-----------7-------------------|
E|---------------------------------|---------------------------------|

G|---------------------------------|---------------------------------|
D|-----------------7---------------|-----------------4-------6-------|
A|-5-----------5-------------------|-5-------7-----------------------|
E|---------------------------------|---------------------------------|

G|---------------------------------|---------------------------------|
D|-7-------------------------------|---------------------------------|
A|---------------------------------|---------------------------------|
E|---------------------------------|---------------------------------|

G|---------------------------------|---------------------------------|
D|---------------------------------|-----------------4-------6-------|
A|---------------------------------|---------7-----------------------|
E|---------------------------------|---------------------------------|

VERSE

G|---------------------------------|---------------------------------|
D|-7-----------7-------------------|-7-----------7-------------------|
A|-----------------7---------------|-----------------7---------------|
E|---------------------------------|---------------------------------|

G|---------------------------------|---------------------------------|
D|-7-----------7-------------------|-7---------------4-------6-------|
A|-----------------7-----------7---|---------7-----------------------|
E|---------------------------------|---------------------------------|

G|---------------------------------|---------------------------------|
D|-7-----------7-------------------|-7-----------7-------------------|
A|-----------------7---------------|-----------------7---------------|
E|---------------------------------|---------------------------------|

G|---------------------------------|---------------------------------|
D|-7-----------7-------------------|-7-------------------------------|
A|-----------------7-----------7---|-------------------------4-------|
E|---------------------------------|---------5-------7---------------|

G|---------------------------------|---------------------------------|
D|---------------------------------|---------------------------------|
A|-5-------------------------------|-5-------------------------------|
E|-----------------5---------------|-----------------5---------------|

G|---------------------------------|---------------------------------|
D|---------------------------------|-----------------4-------6-------|
A|-5-------------------------------|-5-------7-----------------------|
E|-----------------5---------------|---------------------------------|

G|---------------------------------|---------------------------------|
D|-7-----------7-------------------|-7-----------7-------------------|
A|-----------------7---------------|-----------------7---------------|
E|---------------------------------|---------------------------------|

G|---------------------------------|---------------------------------|
D|-7-----------7-------------------|-7-------7-------6-------4-------|
A|-----------------7-----------7---|---------------------------------|
E|---------------------------------|---------------------------------|

G|---------------------------------|---------------------------------|
D|-----------------9---------------|-----------------9---------------|
A|-7-------------------------------|-7-------------------------------|
E|---------------------------------|---------------------------------|

G|---------------------------------|---------------------------------|
D|-----------------7---------------|-----------------4-------6-------|
A|-5-------------------------------|-5-------7-----------------------|
E|---------------------------------|---------------------------------|

G|---------------------------------|---------------------------------|
D|-7-------------------------------|---------------------------------|
A|---------------------------------|---------------------------------|
E|---------------------------------|---------------------------------|

G|---------------------------------|---------------------------------|
D|---------------------------------|---------------------------------|
A|---------------------------------|-------------------------4-------|
E|---------------------------------|---------5-------7---------------|

BRIDGE

G|---------------------------------|---------------------------------|
D|---------------------------------|---------------------------------|
A|-5-------------------------------|-5-------------------------------|
E|-----------------5---------------|-----------------5---------------|

G|---------------------------------|---------------------------------|
D|---------------------------------|-----------------4-------6-------|
A|-5-----------5-------------------|-5-------7-----------------------|
E|-----------------5---------------|---------------------------------|

G|---------------------------------|---------------------------------|
D|-7-----------7-------------------|-7-----------7-------------------|
A|-----------------7---------------|-----------------7---------------|
E|---------------------------------|---------------------------------|

G|---------------------------------|---------------------------------|
D|-7-----------7-------------------|---------------------------------|
A|-----------------7---------------|-7-----------------------4-------|
E|---------------------------------|---------5-------7---------------|

G|---------------------------------|---------------------------------|
D|---------------------------------|---------------------------------|
A|-5-----------5-------------------|-5-----------5-------------------|
E|-----------------5---------------|-----------------5---------------|

G|---------------------------------|---------------------------------|
D|---------------------------------|---------4-------7-------4-------|
A|-5-----------5-------------------|-5-------------------------------|
E|-----------------5---------------|---------------------------------|

G|---------------------------------|---------------------------------|
D|-9-------7-------6---------------|-9-------7-------6---------------|
A|-------------------------9-------|-------------------------9-------|
E|---------------------------------|---------------------------------|

G|-9-----------9---9-----------9---|-9-------------------------------|
D|---------------------------------|-----------------4-------6-------|
A|---------------------------------|---------7-----------------------|
E|---------------------------------|---------------------------------|

VERSE

G|---------------------------------|---------------------------------|
D|-7-----------7-------------------|-7-----------7-------------------|
A|-----------------7---------------|-----------------7---------------|
E|---------------------------------|---------------------------------|

G|---------------------------------|---------------------------------|
D|-7-----------7-------------------|-7---------------4-------6-------|
A|-----------------7-----------7---|---------7-----------------------|
E|---------------------------------|---------------------------------|

G|---------------------------------|---------------------------------|
D|-7-----------7-------------------|-7-----------7-------------------|
A|-----------------7---------------|-----------------7---------------|
E|---------------------------------|---------------------------------|

G|---------------------------------|---------------------------------|
D|-7-----------7-------------------|-7-------------------------------|
A|-----------------7-----------7---|-------------------------4-------|
E|---------------------------------|---------5-------7---------------|

G|---------------------------------|---------------------------------|
D|---------------------------------|---------------------------------|
A|-5-------------------------------|-5-------------------------------|
E|-----------------5---------------|-----------------5---------------|

G|---------------------------------|---------------------------------|
D|---------------------------------|-----------------4-------6-------|
A|-5-------------------------------|-5-------7-----------------------|
E|-----------------5---------------|---------------------------------|
[ Tab from: http://www.guitartabs.cc/tabs/b/beatles/nothin_shakin_btab_ver_2.html ]
G|---------------------------------|---------------------------------|
D|-7-----------7-------------------|-7-----------7-------------------|
A|-----------------7---------------|-----------------7---------------|
E|---------------------------------|---------------------------------|

G|---------------------------------|---------------------------------|
D|-7-----------7-------------------|-7-------7-------6-------4-------|
A|-----------------7---------------|---------------------------------|
E|---------------------------------|---------------------------------|

G|---------------------------------|---------------------------------|
D|-----------------9---------------|-----------------9---------------|
A|-7-------------------------------|-7-------------------------------|
E|---------------------------------|---------------------------------|

G|---------------------------------|---------------------------------|
D|-----------------7---------------|-----------------4-------6-------|
A|-5-------------------------------|-5-------7-----------------------|
E|---------------------------------|---------------------------------|

G|---------------------------------|---------------------------------|
D|-7-------------------------------|---------------------------------|
A|---------------------------------|---------------------------------|
E|---------------------------------|---------------------------------|

G|---------------------------------|---------------------------------|
D|---------------------------------|-----------------4-------6-------|
A|---------------------------------|---------7-----------------------|
E|---------------------------------|---------------------------------|

GUITAR SOLO

G|---------------------------------|---------------------------------|
D|-7-------6-------4---------------|-4-------------------------------|
A|-------------------------7-------|---------7-------5-------4-------|
E|---------------------------------|---------------------------------|

G|---------------------------------|---------------------------------|
D|-7-------7-----------------------|---------------------------------|
A|-----------------7-------4-------|---------4-------7-------4-------|
E|---------------------------------|-5-------------------------------|

G|---------------------------------|---------------------------------|
D|-7-------7-------6-------6-------|-4-------4-----------------------|
A|---------------------------------|-----------------7-------7-------|
E|---------------------------------|---------------------------------|

G|---------------------------------|---------------------------------|
D|-7-------7-------6-------6-------|---------------------------------|
A|---------------------------------|-------------------------4-------|
E|---------------------------------|-5-------5-------7---------------|

G|---------------------------------|---------7-------5-------4-------|
D|---------4-------5-------7-------|-5-------------------------------|
A|-5-------------------------------|---------------------------------|
E|---------------------------------|---------------------------------|

G|---------------------------------|-7-------5-------4---------------|
D|---------4-------7-------4-------|---------------------------------|
A|-5-------------------------------|---------------------------------|
E|---------------------------------|---------------------------------|

G|---------------------------------|---------------------------------|
D|---------7-------5-------4-------|---------------------------------|
A|-5-------------------------------|-7-------5-------4---------------|
E|---------------------------------|---------------------------------|

G|---------------------------------|---------------------------------|
D|---------7-------6-------4-------|-----------------7---------------|
A|---------------------------------|---------------------------------|
E|---------------------------------|-5-------------------------------|

G|---------------------------------|---------------------------------|
D|----------------/9---------------|----------------/9---------------|
A|-7-------------------------------|-7-------------------------------|
E|---------------------------------|---------------------------------|

G|---------------------------------|---------------------------------|
D|----------------/7---------------|-----------------4-------6-------|
A|-5-------------------------------|-5-------7-----------------------|
E|---------------------------------|---------------------------------|

G|---------------------------------|---------------------------------|
D|-7-------7-------6-------6-------|-4-------4-----------------------|
A|---------------------------------|-----------------7-------7-------|
E|---------------------------------|---------------------------------|

G|---------------------------------|---------------------------------|
D|-7-------7-------6-------6-------|-7-------------------------------|
A|---------------------------------|-------------------------4-------|
E|---------------------------------|---------5-------7---------------|

BRIDGE

G|---------------------------------|---------------------------------|
D|---------------------------------|---------------------------------|
A|-5-------------------------------|-5-------------------------------|
E|-----------------5---------------|-----------------5---------------|

G|---------------------------------|---------------------------------|
D|---------------------------------|-----------------4-------6-------|
A|-5-------------------------------|-5-------7-----------------------|
E|-----------------5---------------|---------------------------------|

G|---------------------------------|---------------------------------|
D|-7-------------------------------|-7-------------------------------|
A|-----------------7---------------|-----------------7---------------|
E|---------------------------------|---------------------------------|

G|---------------------------------|---------------------------------|
D|-7-------------------------------|---------------------------------|
A|-----------------7---------------|-7-----------------------4-------|
E|---------------------------------|---------5-------7---------------|

G|---------------------------------|---------------------------------|
D|---------------------------------|---------------------------------|
A|-5-------------------------------|-5-------------------------------|
E|-----------------5---------------|-----------------5---------------|

G|---------------------------------|---------------------------------|
D|---------------------------------|---------4-------7-------4-------|
A|-5-------------------------------|-5-------------------------------|
E|-----------------5---------------|---------------------------------|

G|---------------------------------|---------------------------------|
D|-9-------7-------6---------------|-7---------------6---------------|
A|-------------------------9-------|-------------------------9-------|
E|---------------------------------|---------------------------------|

G|-9---------------9---------------|-9-------------------------------|
D|---------------------------------|-----------------4-------6-------|
A|---------------------------------|---------7-----------------------|
E|---------------------------------|---------------------------------|

VERSE

G|---------------------------------|---------------------------------|
D|-7-----------7-------------------|-7-----------7-------------------|
A|-----------------7---------------|-----------------7---------------|
E|---------------------------------|---------------------------------|

G|---------------------------------|---------------------------------|
D|-7-----------7-------------------|-7---------------4-------6-------|
A|-----------------7-----------7---|---------7-----------------------|
E|---------------------------------|---------------------------------|

G|---------------------------------|---------------------------------|
D|-7-----------7-------------------|-7-----------7-------------------|
A|-----------------7---------------|-----------------7---------------|
E|---------------------------------|---------------------------------|

G|---------------------------------|---------------------------------|
D|-7-----------7-------------------|-7-------------------------------|
A|-----------------7-----------7---|-------------------------4-------|
E|---------------------------------|---------5-------7---------------|

G|---------------------------------|---------------------------------|
D|---------------------------------|---------------------------------|
A|-5-----------5-------------------|-5-----------5-------------------|
E|-----------------5---------------|-----------------5---------------|

G|---------------------------------|---------------------------------|
D|---------------------------------|-----------------4-------6-------|
A|-5-----------5-------------------|-5-------7-----------------------|
E|-----------------5---------------|---------------------------------|

G|---------------------------------|---------------------------------|
D|-7-----------7-------------------|-7-----------7-------------------|
A|-----------------7---------------|-----------------7---------------|
E|---------------------------------|---------------------------------|

G|---------------------------------|---------------------------------|
D|-7-----------7-------------------|-7-------7-------6-------4-------|
A|-----------------7---------------|---------------------------------|
E|---------------------------------|---------------------------------|

G|---------------------------------|---------------------------------|
D|-----------------9---------------|-----------------9---------------|
A|-7-------------------------------|-7-----------7-------------------|
E|---------------------------------|---------------------------------|

G|---------------------------------|---------------------------------|
D|-----------------7---------------|-----------------4-------6-------|
A|-5-----------5-------------------|-5-------7-----------------------|
E|---------------------------------|---------------------------------|

G|---------------------------------|---------------------------------|
D|-7-------------------------------|---------------------------------|
A|---------------------------------|---------------------------------|
E|---------------------------------|---------------------------------|

G|---------------------------------|---------------------------------|
D|---------------------------------|-----------------4-------6-------|
A|---------------------------------|---------7-----------------------|
E|---------------------------------|---------------------------------|

OUTRO

G|---------------------------------|---------------------------------|
D|-7-----------7-------------------|-7-----------7-------------------|
A|-----------------7---------------|-----------------7---------------|
E|---------------------------------|---------------------------------|

G|---------------------------------|---------------------------------|
D|-7-----------7-------------------|-7---------------4-------6-------|
A|-----------------7-----------7---|---------7-----------------------|
E|---------------------------------|---------------------------------|

G|---------------------------------|---------------------------------|
D|-7-----------7-------------------|-7-----------7-------------------|
A|-----------------7---------------|-----------------7---------------|
E|---------------------------------|---------------------------------|

G|---------------------------------|---------------------------------|
D|-7-----------7-------------------|-7---------------4-------6-------|
A|-----------------7-----------7---|---------7-----------------------|
E|---------------------------------|---------------------------------|

G|---------------------------------|---------------------------------|
D|-7-----------7-------------------|-7-----------7-------------------|
A|-----------------7---------------|-----------------7---------------|
E|---------------------------------|---------------------------------|

G|---------------------------------|---------------------------------|
D|-7---------------6-------7-------|-------------7-------------------|
A|---------7-----------------------|---------------------------------|
E|---------------------------------|---------------------------------|
Comments