Beatles - Mother Natures Son Chords & Tabs

 

Mother Natures Son Chords & Tabs

Beatles Chords & Tabs

Version: 3 Type: Tab 0 ratings
1 star 2 stars 3 stars 4 stars 5 stars
comments

Mother Natures Son Tab

   
    ------------------------------------------------------------

    THE BEATLES - MOTHER NATURE'S SON (Lennon & McCartney) From 
                  the WHITE ALBUM. Released 22nd November 1968.

    ------------------------------------------------------------

    Tabbed by:PJVillanueva






    Born a poor young country boy  
    Mother Nature's son
    All day long I'm sitting singing songs for everyone.

    Sit beside a mountain stream  
    See her waters rise
    Listen to the pretty sound of music as she flies.

    Find me in my field of grass  
    Mother Nature's son
    Swaying daises sing a lazy song beneath the sun.

    Mother Nature's son.





    INTRO
                                                          X X  X

  e|------- 2------ ------- 2------|------- 2------ ------- -------|
  B|--------3---------------3------|--------3----------------------|
  G|4---------------2--------------|1------------------------------|
  D|-------------------------------|-------------------------------|
  A|-------------------------------|-------------------------------|
  E|-------------------------------|----------------0--------------|



    00:08
                           
  e|5---5-- 5---5-- 3---3-- 3---3--|0---0-0 0---3-- 3P2-2-2 2-2-2--|
  B|----3---3---3-------3---3---3--|----3-3-3---3-------3-3-3-3-3--|
  G|----2---2---2-------2---2---2--|----2-2-2---2-------2-2-2-2-2--|
  D|0---------------0--------------|0---------------0--------------|
  A|-------------------------------|-------------------------------|
  E|-------------------------------|-------------------------------|





  e|0H2-2-- 2-2-2-- 2H3-3-- 3-3-3--|0H2-2-2 2---2-0 0H2-2-2 2---2--|
  B|----3---3-3-3-------3---3-3-3--|3---3-3-3---3-------3-3-3---3--|
  G|----2---2-2-2-------2---2-2-2--|2---2-2-2---2-------2-2-2---2--|
  D|0---------------0--------------|0---------------0--------------|
  A|-------------------------------|-------------------------------|
  E|-------------------------------|-------------------------------|



    VERSE
    00:20

  e|2---2-- 2-2-2-- 2H3-3-3 3-3-3--|3---3-- 3---3P2 2---2-- 2-2-2--|
  B|----3---3-3-3-------3-3-3-3-3--|----3---3---3-------3---3-3-3--|
  G|----2---2-2-2-------2-2-2-2-2--|----4---4---4-------2---2-2-2--|
  D|0---------------0--------------|0---------------0--------------|
  A|-------------------------------|-------------------------------|
  E|-------------------------------|-------------------------------|
    Born    a       poor    young   country         boy




  e|----2-- 2-2-2-- ----2-- 2-2-2--|----2-- 2---2-- ----2-- 2---2--|
  B|----3---3-3-3-------3---3-3-3--|----3-3-3---3-------3---3-3-3--|
  G|4---------------2--------------|1-----------1---------------1--|
  D|-------------------------------|-------------------------------|
  A|-------------------------------|-------------------------------|
  E|-------------------------------|----------------0--------------|
    Mother          Nature's        son



    00:31

  e|----5-- ----5-- ----5-- ----5--|----5-- ----5-- ----5-- ----5--|
  B|2---2---3---3---2---2---3---3--|2---2---3---3---2---2---3---3--|
  G|----2-------2-------2-------2--|----2-------2-------2-------2--|
  D|----2-------4-------2-------4--|----2-------4-------2-------4--|
  A|0-------0-------0-------0------|0-------0-------0-------0------|
  E|-------------------------------|-------------------------------|
    All     day long        I'm     sitting     songs     everyone.
                                          singing       for




  e|2---2-- 2-3P2-- 1---1-- 1-3-3-3|3---3-3 3-5-3-- 2---2-- 2---2--|
  B|----3---3-3-3-------1---1---1--|----3-3-3---3-------3---3-3-3--|
  G|----2---2-2-2-------2---2---2--|----4-4-4---4-------2---2-2-2--|
  D|0---------------0--------------|0---------------0--------------|
  A|-------------------------------|-------------------------------|
  E|-------------------------------|-------------------------------|






  e|2---2-- 2-3P2-- 1---1-- 1-3/5--|3---3-3 3-5-3-- 2---2-2 2---2--|
  B|----3---3-3-3-------1---1------|----3-3-3---3-------3-3-3-3-3--|
  G|----2---2-2-2-------2---2------|----4-4-4---4-------2-2-2-2-2--|
  D|0---------------0--------------|0---------------0--------------|
  A|-------------------------------|-------------------------------|
  E|-------------------------------|-------------------------------|

  e|------- ------- ------- -------|------- ------- ------- -------|
  B|-------------------------------|-------------------------------|
  G|7------------------------------|-------------------------------|
  D|-------------------------------|-------------------------------|
  A|-------------------------------|-------------------------------|
  E|-------------------------------|-------------------------------|




    00:48

  e|2---2-2 2---2-- 2H3-3-- 3-3-3--|3---3-- 3---3-- 2---2-2 2-2-2--| 
  B|----3-3-3---3-------3---3-3-3--|----3---3---3-------3-3-3-3-3--|
  G|----2-2-2---2-------2---2-2-2--|----2---4---4-------2-2-2-2-2--|
  D|0---------------0--------------|0---------------0--------------|
  A|-------------------------------|-------------------------------|
  E|-------------------------------|-------------------------------|

  e|5------ ------- 7------ -------|7------ ------- 5------ -------|
  B|7---------------8--------------|8---------------7--------------|
  G|7---------------7--------------|7---------------7--------------|
  D|7---------------9--------------|9---------------7--------------|
  A|-------------------------------|-------------------------------|
  E|-------------------------------|-------------------------------|
    Sit     beside          a       mountain        stream 




  e|----2-- 2-2-2-- ----2-- 2-2-2--|----2-- 2---2-- ------- -------|  
  B|----3---3-3-3-------3---3-3-3--|----3---3-3-3------------------|
  G|4---------------2--------------|1-----------1------------------|
  D|-------------------------------|----------------------------2--|
  A|-------------------------------|------------------------2------|
  E|-------------------------------|----------------0--/4----------|

  e|7------ ------- 7------ -------|------- ------- ------- -------|
  B|7---------------7--------------|7---------------5--------------|
  G|7---------------7--------------|7---------------7--------------|
  D|9---------------7--------------|6---------------6--------------|
  A|-------------------------------|-------------------------------|
  E|-------------------------------|-------------------------------|
    See     her     waters          rise



    00:31

  e|----5-- ----5-- ----5-- ----5--|----5-- ----5-- ----5-- ----5--|
  B|2---2---3---3---2---2---3---3--|2---2---3---3---2---2---3---3--|   
  G|----2-------2-------2-------2--|----2-------2-------2-------2--|
  D|----2-------4-------2-------4--|----2-------4-------2-------4--|
  A|0-------0-------0-------0------|0-------0-------0-------0------|
  E|-------------------------------|-------------------------------|

  e|------- ------- ------- -------|------- ------- ------- -------|
  B|5-------7-------5-------7------|5-------7-------5--------------|
  G|6-------7-------6-------7------|6-------7-------6--------------|
  D|7-------7-------7-------7------|7-------7-------7--------------|
  A|-------------------------------|-------------------------------|
  E|-------------------------------|-------------------------------|
    Listen      to          the     pretty      of  music   as  she  
                                        sound                     flies




  e|2---2-- 2-3P2-- 1---1-- 1-3/5--|3---3-3 3-5-3-- 2---2-2 2------|
  B|----3---3-3-3-------1---1-1/6--|----3-3-3---3-------3-3-3------|
  G|----2---2-2-2-------2---2------|----4-4-4---4-------2-2-2------|
  D|0---------------0--------------|0---------------0--------------|
  A|-------------------------------|-------------------------------|
  E|-------------------------------|-------------------------------|

  e|------- ------- ------- -------|------- ------- ------- -------|
  B|7---------8-7---6--------------|8---------10-8--7--------------|
  G|7---------------5--------------|7---------------7--------------|
  D|7---------------7--------------|9---------------7--------------|
  A|-------------------------------|-------------------------------|
  E|-------------------------------|-------------------------------|
                                                            doo doo



    01:10

  e|5------ ------- ------- 5------|7------ ------- 5------ -------|
  B|7-------7-------8-------7------|8-------8-------7-------7------|
  G|--------7-------9--------------|--------9---------------7------|
  D|0-------0-------0-------0------|0-------0-------0-------0------|
  A|-------------------------------|-------------------------------|
  E|-------------------------------|-------------------------------|

  e|5------ ------- 0------ 5------|7------ 7------ 5------ -------|
  B|7-------7-------8-------7------|8-P-7---8-------7--------------|
  G|7-------7-------7-------7------|7-------9---7---7--------------|
  D|--------0---------------7------|-------------------------------|
  A|-------------------------------|-------------------------------|
  E|-------------------------------|-------------------------------|
    doooo   doooo   doooo   doooo   doo doo doo doo doooo




  e|5------ ------- ------- 5------|7------ -------|
  B|7-------7-------8-------7------|8-------8------|
  G|--------7-------9--------------|--------9------|
  D|0-------0-------0-------0------|0-------0------|
  A|-------------------------------|---------------|
  E|-------------------------------|---------------|

  e|5------ ------- 0------ 5------|7------ 7------|
  B|7-------7-------8-------7------|8-P-7---8------|
  G|7-------7-------7-------7------|7-------9---7--|
  D|--------0----------------------|---------------|
  A|-------------------------------|---------------|
  E|-------------------------------|---------------|
    doooo   doooo   doooo   doooo   doo doo doo doo 




  e|5---5-5 5-7-5-- 5---5-5 5-7-5--|5---5-5 5-7-5-- 7------ 5------|
  B|7---7-7-7---7---7---7-7-7---7--|----7-7-7-7-7---7---7---7---7--|
  G|7---7-7-7---7---6---6-6-6---6--|----5-5-5-5-5---5---5---5---5--|
  D|0-------0-------0--------------|0---------------0--------------|
  A|-------------------------------|-------------------------------|
  E|-------------------------------|-------------------------------|

  e|5------ ------- ------- -------|------- ------- 7------ 5------|
  B|7------------------------------|----------------8-------7------|
  G|7---------------6--------------|5---------------7-------7------|
  D|-------------------------------|-------------------------------|
  A|-------------------------------|-------------------------------|
  E|-------------------------------|-------------------------------|
    Doooo                                       Mmm doooooooo   doo




  e|3---3-3 3-5-3-- 3---3-3 3-5-3--|2---2-- 2-2-2-- 2---2-- 2-2-2--|
  B|3---3-3-3-3-3---3---3-3-3-3-3--|----3---3-3-3-------3---3-3-3--|
  G|4---4-4-4-4-4---3---3-3-3-3-3--|----2---2-2-2-------2---2-2-2--| 
  D|0---------------0--------------|0---------------0--------------|
  A|-------------------------------|-------------------------------|
  E|-------------------------------|-------------------------------|

  e|------- ------- ------- -------|------- ------- ------- -------|
  B|8------------------------------|7------------------------------|
  G|7------------------------------|7------------------------------|
  D|9---------------8--------------|7------------------------------|
  A|-------------------------------|-------------------------------|
  E|-------------------------------|-------------------------------|
    oooooooooooooooooooooooooooooooooooooooooooooooooo


    01:32
[ Tab from: http://www.guitartabs.cc/tabs/b/beatles/mother_natures_son_tab_ver_3.html ]
  e|2---2-2 2---2-- 2H3-3-- 3-3-3--|3---3-- 3---3-- 2---2-2 2-2-2--|  
  B|----3-3-3---3-------3---3-3-3--|----3---3---3-------3-3-3-3-3--|
  G|----2-2-2---2-------2---2-2-2--|----4---4---4-------2-2-2-2-2--|
  D|0---------------0--------------|0---------------0--------------|
  A|-------------------------------|-------------------------------|
  E|-------------------------------|-------------------------------|

  e|5------ ------- 7------ -------|7------ ------- 5------ -------|
  B|7---------------8--------------|8---------------7--------------|
  G|7---------------7--------------|7---------------7--------------|
  D|7---------------9--------------|9---------------7--------------|
  A|-------------------------------|-------------------------------|
  E|-------------------------------|-------------------------------|
    Find    me      in      my      field       of  grass




  e|----2-2 2-2-2-- ----2-- 2-2-2--|----2-- 2---2-- ------- -------|  
  B|----3-3-3-3-3-------3---3-3-3--|----3---3-3-3------------------| 
  G|4---------------2--------------|1-----------1------------------|
  D|-------------------------------|----------------------------2--|
  A|-------------------------------|------------------------2------|
  E|-------------------------------|----------------0--/4----------|

  e|7------ ------- 7------ -------|------- ------- ------- -------|
  B|7---------------7--------------|7---------------5--------------|
  G|7---------------7--------------|7---------------7--------------|
  D|9---------------7--------------|6---------------6--------------|
  A|-------------------------------|-------------------------------|
  E|-------------------------------|-------------------------------|
    Mother          Nature's        son     



    00:00

  e|----5-- ----5-- ----5-- ----5--|----5-- ----5-- ----5-- ----5--|
  B|2---2---3---3---2---2---3---3--|2---2---3---3---2---2---3---3--|   
  G|----2-------2-------2-------2--|----2-------2-------2-------2--|
  D|----2-------4-------2-------4--|----2-------4-------2-------4--|
  A|0-------0-------0-------0------|0-------0-------0-------0------|
  E|-------------------------------|-------------------------------|

  e|------- ------- ------- -------|------- ------- ------- -------|
  B|5-------7-------5-------7------|5-------7-------8--------------|
  G|6-------7-------6-------7------|6-------7-------6--------------|
  D|7-------7-------7-------7------|7-------7-------7--------------|
  A|-------------------------------|-------------------------------|
  E|-------------------------------|-------------------------------|
    Swaying       daises            sing  lazy  song    beneath the 
                                        a                         sun




  e|2---2-2 2-3-2-- 1---1-- 1-3----|3---3-3 3-5-3-- 2---2-- 2------|
  B|----3-3-3-3-3-------1---1-1----|----3-3-3-3-3-------3----------|
  G|----2-2-2-2-2-------2---2-2----|----4-4-4-4-4-------2----------|
  D|0---------------0--------------|0---------------0-------0---0--|
  A|-------------------------------|-------------------------------|
  E|-------------------------------|-------------------------------|

  e|5------ ------- 5------ -------|7------ ------- 5------ -------|
  B|7---------------6---------8-6--|8---------10-8--7--------------|
  G|7---------------5--------------|7---------------7--------------|
  D|7---------------7--------------|9---------------7--------------|
  A|-------------------------------|-------------------------------|
  E|-------------------------------|-------------------------------|
                                                            doo doo
                                                                      

    01:54

  e|5------ ------- ------- 5------|7------ ------- 5---5-5 5-5----| 
  B|7-------7-------8-------7------|8-------8-------7---7-7-7-7----|
  G|--------7-------9--------------|--------9-----------7-7-7-7----|
  D|0-------0-------0-------0------|0-------0-------0-------0------|
  A|-------------------------------|-------------------------------|
  E|-------------------------------|-------------------------------|

  e|5------ ------- 0------ 5------|7------ 7------ 5------ -------|
  B|7-------7-------8-------7------|8---7---8-------7--------------|
  G|7-------7-------7-------7------|7-------9---7---7--------------|
  D|--------0----------------------|-------------------------------|
  A|-------------------------------|-------------------------------|
  E|-------------------------------|-------------------------------|
    doooo   doooo   doooo   doooo   doo doo doo doo doooo




  e|5------ ------- ------- 5------|7------ -------|
  B|7-------7-------8-------7------|8-------8------|
  G|--------7-------9--------------|--------9------|
  D|0-------0-------0-------0------|0-------0------|
  A|-------------------------------|---------------|
  E|-------------------------------|---------------|

  e10---9-- 7------ 7------ -------|7------ 7------|
  B|7-------7---10--8---7-------7--|8---10--8---8--|
  G|7-------7-------7-------9------|7-------9------|
  D|7-------7-------7-------7------|---------------|
  A|-------------------------------|---------------|
  E|-------------------------------|---------------|
    doooo   doooo   doooo   doooo   doooooo doo doo 




  e|5---5-5 5-7-5-- 5---5-5 5-7-5--|5---5-5 --5---- 7------ 5------|
  B|----7-7-7-7-7---7---7-7-7-7-7--|7---7-7---7-----7---7---7---7--|
  G|----7-7-7-7-7---6---6-6-6-6-6--|5---5-5---5-5---5---5---5---5--|
  D|0-------0-------0--------------|0---------------0--------------|
  A|-------------------------------|-------------------------------|
  E|-------------------------------|-------------------------------|

  e10------ ------- 9------ -------|8------ ------- 7------ 5------|
  B|7---------------7--------------|7---------------7-------7------|
  G|7---------------7--------------|7-------7-------7-------7------|
  D|-------------------------------|-------------------------------|
  A|-------------------------------|-------------------------------|
  E|-------------------------------|-------------------------------|
    Dooooooooooooooooooooooooo        doooo dododoooooooo  doodoooo



                                                    X X X X   X X

  e|3---3-3 3-5-3-- 3---3-3 --3----|2---2-2 2-2-2-- 2H3-2H3 2------|
  B|----3-3-3-3-3---3---3-3---3----|----3-3-3-3-3-------3---3-3-3--|
  G|----4-4-4-4-4---3---3-3---3----|----2-2-2-2-2-------2---2-2-2--| 
  D|0---------------0--------------|0---------------0--------------|
  A|-------------------------------|-------------------------------|
  E|-------------------------------|-------------------------------|

  e|7------ ------- 6------ -------|5------ ------- ------- -------|
  B|8---------------8--------------|7------------------------------|
  G|7---------------7--------------|7------------------------------|
  D|-------------------------------|-------------------------------|
  A|-------------------------------|-------------------------------|
  E|-------------------------------|-------------------------------|
    ooooooooooooooooo     Yeah    yeah
                              yeah
    X
    02:15

  e|2---2-2 2-2-2-- 2H3-3-3 3---3--|3---3-3 3---3-- 2---2-2 2-2-2--| 
  B|----3-3-3-3-3-------3-3-3---3--|----3-3-3---3-------3-3-3-3-3--|
  G|----2-2-2-2-2-------2-2-2---2--|----4-4-4---4-------2-2-2-2-2--|
  D|0---------------0--------------|0---------------0--------------|
  A|-------------------------------|-------------------------------|
  E|-------------------------------|-------------------------------|

  e|------- ------- ------- -------|------- ------- ------- -------|
  B|-------------------------------|-------------------------------|
  G|----2-------2-------2-------2--|----2-------2-------2-/-7-~----|
  D|4-------4-------5-------5------|5-------5-------4--------------|
  A|-------------------------------|-------------------------------|
  E|-------------------------------|-------------------------------|
    Mmmmmmmmmmmmmmmmmmmmmmmmmmmmmmmmmmmmmmmmmmmmmmmmmmmmmmmmmmm




  e|----2-- 2-2-2-- ----2-- 2---2--|----2-- 2---2-- ------- -------|
  B|----3---3-3-3-------3---3-3-3--|----3---3-3-3------------------|
  G|4---------------2--------------|1-----------1------------------|
  D|-------------------------------|----------------------------2--|
  A|-------------------------------|------------------------2------|
  E|-------------------------------|----------------0--/4----------|

  e|10----- 10----- 9------ 10P9P7-|7------ ------- ------- -------|
  B|-------------------------------|-------------------------------|
  G|-------------------------------|-------------------------------|
  D|-9-------9------7--------7-----|6---------------------------2--|
  A|-------------------------------|------------------------2------|
  E|-------------------------------|----------------0--/4----------|  
    Ooooooooooooo   Ooooooooooooooooooooooooo




  e|----5-- ----5-- ----5-- ----5--|----5-- ----5-- ----5-- ----5--|
  B|2---2---3---3---2---2---3---3--|2---2---3---3---2---2---3---3--|   
  G|----2-------2-------2-------2--|----2-------2-------2-------2--|
  D|----2-------4-------2-------4--|----2-------4-------2-------4--|
  A|0-------0-------0-------0------|0-------0-------0-------0------|
  E|-------------------------------|-------------------------------|

  e|12----- 10----- 9------ -------|------- ------- ------- -------|
  B|------------------------12-----|10-----------------------------|
  G|-9-------7------6--------------|--------12------11------9------|
  D|-------------------------9-----|-7-----------------------------|
  A|-------------------------------|--------10-------9------7------|
  E|-------------------------------|-------------------------------|
    Ooooooooooooooooooooooooooooo   Ooooooooooooouuuuuuuuuuuuwawaaa




  e|2---2-- 2-3-2-- 1---1-- 1-3----|3---3-3 3-5-3-- 2---2-- 2---2--|
  B|----3---3-3-3-------1---1-1----|----3-3-3-3-3-------3---3-3-3--|
  G|----2---2-2-2-------2---2-2----|----4-4-4-4-4-------2---2-2-2--|
  D|0---------------0--------------|0---------------0--------------|
  A|-------------------------------|-------------------------------|
  E|-------------------------------|-------------------------------|

  e|------- ------- 5-\---- 1-/----|7-\---- 3-/---- 10-~--- -------|
  B|-------------------------------|-------------------------------|
  G|7---------------5-\-----2-/----|7-\-----4-/-----11-~-----------|
  D|------------7------------------|-------------------------------|
  A|5-------7/9--------------------|-------------------------------|
  E|-------------------------------|-------------------------------|
    aaaaaaaaaaaaaaaaaaaaaaaaaaaaaaaaaaaahh                      Ooo


                                                   (.

  e|2---2-- 2-3---- 1---1-1 1-3----|3---3-- --3-3-- 2------ -------|
  B|----3---3-3---------1-1-1-1----|----3-----3-3---3--------------|
  G|----2---2-2---------2-2-2-2----|----4-----4-4---2--------------|
  D|0---------------0--------------|0---------------0--------------|
  A|-------------------------------|-------------------------------|
  E|-------------------------------|-------------------------------|

  e|5------ ------- 5------ -------|7------ ------- 5------ -------|
  B|7---------------7--------------|8---------------7--------------|
  G|7---------------5--------------|7---------------5--------------|
  D|7---------------7--------------|9---------------7--------------|
  A|-------------------------------|-------------------------------|
  E|-------------------------------|-------------------------------|
    ooooaaaaaaaaaaaaaaaaaaaaaahh    Mother        son
                                          Nature



  e|------- ------- ------- -------|------- ------- ------- -------|
  B|-------------------------------|-------------------------------|
  G|-------------------------------|-------------------------------|
  D|-------------------------------|-------------------------------|
  A|-------------------------------|-------------------------------|
  E|-------------------------------|-------------------------------|







        B  Bend
        R  Release
        /  Slide up
        \  Slide down
        H  Hammer-on
        P  Pull-off
        ~  Vibrato
        +  Harmonic
        x  Mute note
        .  Play note like a dot in standard notation
        ^  Ties two notes together
        (. Pause



Comments