Beatles - Mother Natures Son Chords & Tabs

 

Mother Natures Son Chords & Tabs

Beatles Chords & Tabs

Version: 1 Type: Tab 0 ratings
1 star 2 stars 3 stars 4 stars 5 stars
comments

Mother Natures Son Tab

#----------------------------------PLEASE NOTE---------------------------------#
#This file is the author's own work and represents their interpretation of the #
#song. You may only use this file for private study, scholarship, or research. #
#------------------------------------------------------------------------------#
The Beatles - Mother Nature's Son

Intro: 
E --2-3-2-1-3-5-3-5-3-2---------------------------------------- 
B --3-----3-----0-----3---------------------------------------- 
G --2-----2-----0-----2---------------------------------------- 
D --0-----0-----0-----0---------------------------------------- 
A ------------------------------------------------------------- 
E ------------------------------------------------------------- 
 
 
Middle Lead (play along with the "do do do" part): 
E ----0-2-------0---2---3-2-0---2---2-------0---2---3-2-0---2-- 
B --3---3---3---3---3---0---0-3-3---3---3---3---3---0---0-3-3-- 
G --2-------2---------------------------2---------------------- 
D --0-----0---0---0---0-----------0---0---0---0---0------------ 
A ------------------------------------------------------------- 
E ------------------------------------------------------------- 
[ Tab from: http://www.guitartabs.cc/tabs/b/beatles/mother_natures_son_tab.html ]
E ---2-2---0-2-3-2-2-0------------------------------------------ 
B ---2-1-3-------------3---------------------------------------- 
G ---2-2---------------0---------------------------------------- 
D ---0-0---------------0---------------------------------------- 
A ---------------------2---------------------------------------- 
E ---------------------3---------------------------------------- 

#----------------------------------PLEASE NOTE---------------------------------#
#This file is the author's own work and represents their interpretation of the #
#song. You may only use this file for private study, scholarship, or research. #
#------------------------------------------------------------------------------#
(from The White Album, 1968) 
(sent by Harlan at harlant@hawaii.edu) 
 
 
 
Date: Thu, 27 Mar 1997 20:55:18 MET 
From: "D.P.NEETESON"  
 
 
Here are the chords for Mother Nature's Son by the Beatles  
From: Harlan L Thompson  
 MOTHER NATURE'S SON- The Beatles 




 
INTRO: 
 (slowly pluck these)           (strum a bit on each of  
these)                               
E ---2---2---2------------------5--3--0--3p2--0h2-2h3-0h2-0h2--- 
B ---3---3---3------------------3--3--3--3-3--3-3-3-3-3-3-3-3--- 
G -4---2---1--------------------2--2--2--2-2--2-2-2-2-2-2-2-2--- 
D ------------------------------0--0--0--0-0--0-0-0-0-0-0-0-0--- 
A -------------------------------------------------------------- 
E -------------0------------------------------------------------ 
               (let ring, then  
              slap guitar a bit) 

RIFF: 
D -------2--- 
A -----2----- 
E -0-4------- 

G/D:    x x 0 0 0 3   E9:  x x 0 1 3 2 
D7sus5: x x 0 2 1 3   D/A: x 0 4 2 3 0 
 
Comments