Beatles - Michelle Chords & Tabs

 

Michelle Chords & Tabs

Beatles Chords & Tabs

Version: 6 Type: Tab 0 ratings
1 star 2 stars 3 stars 4 stars 5 stars
comments

Michelle Tab

------------------------------------------------------------------------
                                                    MICHELLE-THE BEATLES
------------------------------------------------------------------------

Tabbed by: zosoperrylennon, a.k.a Manuel Nieves
E-mail: antaressatevis@gmail.com

Alrighty, First tab, hope this is good! If I screw up
or if there are any corrections tell meh please people!
Gracias! Without further ado, Michelle, by The Beatles!

Im not sure if this is a good idea or not, it may be a bit
confusing, but ah, the numbers in the parenthesis tell you
what finger to use. Your index finger is (1) middle finger (2)
ring finger (3) and pinky (4). If you think its a good idea, tell me,
and if you think its a crappy idea tell me!


e---------8(1)--------8(1)---------8(2)-------8(2)--------8(2)-----------------|
B---------9(2)--------9(3)---------9(3)-------9(3)--------9(3)-----------------|
G---10(3)--------9(2)---------8(1)-------7(1)--------6(1)----------------------|
D------------------------------------------------------------------------------|
A------------------------------------------------------------------------------|
E------------------------------------------------------------------------------|

You bar the first three strings with your index finger
and strum all of them at the same time. Then, after
you hit the note on the b string, you form a little chord,
first finger barring the first two strings, strum it once, then
slide the whole thing down one fret and strum it a couple o times!
[ Tab from: http://www.guitartabs.cc/tabs/b/beatles/michelle_tab_ver_6.html ]
e----6(1)--------------7(1)---/---8(1)-----------------------------------------|
B----6(1)-----9(3)-----7(1)--/----8(1)-----------------------------------------|
G----6(1)--------------9(3)-/----10(3)-----------------------------------------|
D------------------------------------------------------------------------------|
A------------------------------------------------------------------------------|
E------------------------------------------------------------------------------|

Ok, this is the chord progression.
For the first chord, I suggest that you bar the b string
with your index finger (1) at the 5th fret even though
your middle finger (2) is already on the 6th fret of the
same string because it will make the transition to the
next chord easier where all you would have to do is lift
your middle finger up. See what I mean?
Strum each chord a couple o times.

e------8(4)-------9(4)-------8(4)----------------------------------------------|
B------6(2)-------6(1)-------8(3)----------------------------------------------|
G------5(1)-------6(1)-------8(3)----------------------------------------------|
D------7(3)-------8(3)-------8(3)----------------------------------------------|
A----------------------------6(1)----------------------------------------------|
E------------------------------------------------------------------------------|

 Next there's a diminished chord. It has a D chord shape.
Its only strummed once each. after the diminished there's
one last chord. That last one you strum a couple of times.
e------------------------------------------------------------------------------|
B-----6(2)-------9(2)--------12(2)-------9(2)----------------------------------|
G-----7(3)-------10(3)-------13(3)-------10(3)------9(2)-----------------------|
D-----6(1)-------9(1)--------12(1)-------9(1)-------10(4)----------------------|
A---------------------------------------------------10(3)----------------------|
E---------------------------------------------------8(1)-----------------------|

There you have it! My attempt at Michelle by the Beatles! Hope it helped!!!!
Peace out!
Comments