Beatles - Michelle Chords & Tabs

 

Michelle Chords & Tabs

Beatles Chords & Tabs

Version: 4 Type: Tab 0 ratings
1 star 2 stars 3 stars 4 stars 5 stars
comments

Michelle Tab

   
  -----------------------------------------------------------------

  THE BEATLES - MICHELLE (Lennon/McCartney) from RUBBER SOUL album.
                (Released on 3rd December of 1965.)
                

  -----------------------------------------------------------------

  Tabbed by:PJVillanueva






  Michelle, my belle,    
  This are words that go together well, my Michelle
  Michelle, my belle,    
  Sont les mots qui vont tres bien ensemble,
  Tres bien ensemble

  I love you, I love you, I love you                     
  That's all I want to say
  Until I find a way          
  I will say the only words I know     
  That you'll understand.

  Michelle, my belle 
  Sont les mots qui vont tres bien ensemble
  Tres bien ensemble

  I need you, I need you, I need you                  
  I need to make you see
  Oh what you mean to me       
  Until I do I'm hoping you will know what I mean
  I love you ...

                 Solo   

  I want you, I want you, I want you                    
  I think you know by now
  I'll get to you somehow
  Until I do I'm telling you so you'll understand

  Michelle, my belle
  Sont les mots qui vont tres bien ensemble
  Tres bien ensemble          
  And I will say the only words I know      
  That you'll understand, my Michelle.

   



  Use a capo on the fifth fret.( F will then be played 
  as if it was C )



  INTRO

  Cm            G+5           Gm+5           Eb-5
e|------ 3----- ------ 3-----|------ 3------ ------ 3----|
B|-------4-------------4-----|-------4--------------4----|
G|5-------------4------------|3--------------2-----------|
D|---------------------------|---------------------------|
A|---------------------------|---------------------------|
E|---------------------------|---------------------------|
  Abmaj7        Ab6           G                                   
e|------ 3----- 1----- ----/-|3----- 3---/- 3---3- 3-----|
B|-------1------1------4---/-|3------3---/--3---3--3-----|
G|1-------------1------1-----|0-------------0------------|
D|---------------------------|---------------------------|
A|---------------------------|---------------------------|
E|---------------------------|---------------------------|



  C                           Fm7
e|0----- 0---0- ------ 0-----|------ 4----- ------ 4-----|
B|1------1---1---------1-----|-------4-------------4-----|
G|0------0---0---------0-----|-------1-------------1-----|
D|2------2---2---------2-----|-------1-------------1-----|
A|3------3---3---------3-----|-------3-------------3-----|
E|---------------------------|-------1-------------1-----|
  Michelle                           my     belle


  Bb                          Am-5   Cm-5   Ebm-5  Cm-5       
e|------ 1----- ------ 1-----|------ ------ ------ ------|
B|-------3-------------3-----|1--/---4------7--\---4-----|
G|-------3-------------3-----|2--/---5------8--\---5-----|
D|-------3-------------3-----|1--/---4------7--\---4-----|
A|-------1-------------1-----|---------------------------|
E|---------------------------|---------------------------|
  this   are    words  that   go     together 


  G             Cdim          G 
e|3----- 3---3- 2----- 2---2-|3----- 3---3- ------ ------|
B|3------3---3--1------1---1-|3------3---3---------------|
G|0------0---0--2------2---2-|0------0---0---------------|
D|0------0---0--1------1---1-|0------0---0---------------|
A|2------2---2---------------|2------2---2---------------|
E|3------3---3---------------|3------3---3---------------|
  well,         my     Michelle


  C                           Fm7
e|0----- 0---0- 0----- 0---0-|------ 4---4- ------ 4-----|
B|1------1---1--1------1---1-|-------4---4---------4-----|
G|0------0---0--0------0---0-|-------1---1---------1-----|
D|2------2---2--2------2---2-|-------1---1---------1-----|
A|3------3---3--3------3---3-|-------3---3---------3-----|
E|---------------------------|-------1---1---------1-----|
  Michelle                           my     belle

  
  Bb                          Cdim
e|1----- 1---1- 1----- 1-----|2----- 2---2- 2----- 2-----|
B|3------3---3--3------3-----|1------1---1--1------1-----|
G|3------3---3--3------3-----|2------2---2--2------2-----|
D|3------3---3--3------3-----|1------1---1--1------1-----|
A|1------1---1--1------1-----|---------------------------|
E|---------------------------|---------------------------|
  sont   les    mots   qui    vont   tres   bien   ensemble


  G             Cdim          G
e|3----- 3---3- 2----- 2---2-|3----- 3---3- 3----- 3-----|
B|3------3---3--1------1---1-|3------3---3--3------3-----|
G|0------0---0--2------2---2-|0------0---0--0------0-----|
D|0------0---0--1------1---1-|0------0---0--0------0-----|
A|2------2---2---------------|2------2---2--2------3-----|
E|3------3---3---------------|3------3---3--3------3-----|
                tres bien ensemble                     I


  Cm                    
e|3----- 3---3- 3----- 3-----|3----- 3---3- 3----- 3-----|
B|4------4---4--4------4-----|4------4---4--4------4-----|
G|5------5---5--5------5-----|5------5---5--5------5-----|
D|5------5---5--5------5-----|5------5---5--5------5-----|
A|3------3---3--3------3-----|3------3---3--3------3-----|
E|---------------------------|---------------------------|
  love you  I   love you  I   love          you


  Eb7                         Ab
e|------ ------ ------ ------|4----- 4---4- 4----- 4-----|
B|-------4-------------4-----|4------4---4--4------4-----|
G|-------6-------------6-----|5------5---5--5------5-----|
D|-------5-------------5-----|6------6---6--6------6-----|
A|-------6-------------6-----|6------6---6--6------6-----|
E|---------------------------|4------4---4--4------4-----|
     that's all I want   to say


  G                           Cm
e|3----- 3---3- 3----- 3-----|3----- 3---3- 3----- 3-----|
B|3------3---3--3------3-----|4------4---4--4------4-----|
G|4------4---4--4------4-----|5------5---5--5------5-----|
D|5------5---5--5------5-----|5------5---5--5------5-----|
A|5------5---5--5------5-----|3------3---3--3------3-----|
E|3------3---3--3------3-----|---------------------------|
    until I find       a  way                  I   will 



e|------ 3----- ------ 3-----|------ 3------ ------ 3----|
B|-------4-------------4-----|-------4--------------4----|
G|5-------------4------------|3--------------2-----------|
D|---------------------------|---------------------------|
A|---------------------------|---------------------------|
E|---------------------------|---------------------------|
  say    the    only          words  I      know     that

e|------ 3----- 1----- ----/-|3----- 3---/- 3----- 3-----|
B|-------1------1------4---/-|3------3---/--3------3-----|
G|1---1---------1------1-----|0-------------0------------|
D|---------------------------|---------------------------|
A|---------------------------|---------------------------|
E|---------------------------|---------------------------|
  you'll        understand



e|3----- 3----- ------ 3-----|------ 4----- ------ 4-----|
B|1------1-------------1-----|-------4-------------4-----|
G|0------0-------------0-----|-------1-------------1-----|
D|2------2-------------2-----|-------1-------------1-----|
A|3------3-------------3-----|-------3-------------3-----|
E|---------------------------|-------1-------------1-----|
  Michelle                           my     belle



e|1----- 1---1- 1----- 1-----|2----- 2----- 2----- 2---3-|
B|3------3---3--3------3-----|1------1------1------1---3-|
G|3------3---3--3------3-----|2------2------2------2---0-|
D|3------3---3--3------3-----|1------1------1------1---0-|
A|1------1---1--1------1-----|---------------------------|
E|---------------------------|---------------------------|
  sont   les    mots   qui    vont   tres   bien    ensemble



e|3----- 3---3- 2----- 2---2-|3----- 3---3- 3----- 3-----|
B|3------3---3--1------1---1-|3------3---3--3------3-----|
G|0------0---0--2------2---2-|0------0---0--0------0-----|
D|0------0---0--1------1---1-|0------0---0--0------0-----|
A|2------2---2---------------|2------2---2--2------3-----|
E|3------3---3---------------|3------3---3--3------3-----|
                tres bien ensemble                     I



e|3----- 3---3- 3----- 3-----|3----- 3---3- 3----- 3-----|
B|4------4---4--4------4-----|4------4---4--4------4-----|
G|5------5---5--5------5-----|5------5---5--5------5-----|
D|5------5---5--5------5-----|5------5---5--5------5-----|
A|3------3---3--3------3-----|3------3---3--3------3-----|
E|---------------------------|---------------------------|
  need you  I   need you   I  need          you



e|------ ------ ------ ------|4----- 4---4- 4----- 4-----|
B|4------4---4--4------4-----|4------4---4--4------4-----|
G|6------6---6--6------6-----|5------5---5--5------5-----|
D|5------5---5--5------5-----|6------6---6--6------6-----|
A|6------6---6--6------6-----|6------6---6--6------6-----|
E|---------------------------|4------4---4--4------4-----|
    I need      to  make you  see 



e|3----- 3---3- 3----- 3-----|3----- 3---3- 3----- 3-----|
B|3------3---3--3------3-----|4------4---4--4------4-----|
G|4------4---4--4------4-----|5------5---5--5------5-----|
D|5------5---5--5------5-----|5------5---5--5------5-----|
A|5------5---5--5------5-----|3------3---3--3------3-----|
E|3------3---3--3------3-----|---------------------------|
     oh what you mean  to     me                      Until



e|------ 3----- ------ 3-----|------ 3------ ------ 3----|
B|-------4-------------4-----|-------4--------------4----|
G|5-------------4------------|3--------------2-----------|
D|---------------------------|---------------------------|
A|---------------------------|---------------------------|
E|---------------------------|---------------------------|
         I      do     I'm    hoping        you    will


[ Tab from: http://www.guitartabs.cc/tabs/b/beatles/michelle_tab_ver_4.html ]
e|----3- 3----- 1----- ----/-|3----- 3---3- 3----- 3-----|
B|----1--1------1------4---/-|3------3---3--3------3-----|
G|1-------------1------1-----|0-------------0------------|
D|---------------------------|---------------------------|
A|---------------------------|---------------------------|
E|---------------------------|---------------------------|
  know          what   I      mean


  
e|3----- 3---3- 3----- 3---3-|4----- 4---4- 4----- 4-----|
B|1------1---1--1------1---1-|4------4---4--4------4-----|
G|0------0---0--0------0---0-|1------1---1--1------1-----|
D|2------2---2--2------2---2-|1------1---1--1------1-----|
A|3------3---3--3------3---3-|3------3---3--3------3-----|
E|---------------------------|1------1---1--1------1-----| ....
    I       love   you


  SOLO 

e|------ ------ ------ ------|------ ------ ------ ------|
B|---------------------------|---------------------------|
G|---------------------------|---------------------------|
D|-----------0--2--------3-5-|6----\--------1------------|
A|3--------3-----------------|---------------------------|
E|---------------------------|---------------------------| 


e|------ ------ ------ ------|------ ------ ------ ------|
B|---------------------------|---------------------------|
G|---------------------------|---------------------------|
D|0---------0-1-3------------|------------0-1------------|
A|---------------------1-----|3---------3----------0-----|
E|---------------------------|---------------------------| 
 
                          
e|------ ------ ------ ------|------ ------ ------ ------|
B|---------------------------|---------------------------|
G|---------------------------|---------------------------|
D|------------------1--------|--------------------------0|
A|2-------------0--------3---|2-----------------0--2--3--|
E|---------------------------|----------------3----------|
                                                      I

e|3----- 3---3- 3----- 3-----|3----- 3---3- 3----- 3-----|
B|4------4---4--4------4-----|4------4---4--4------4-----|
G|5------5---5--5------5-----|5------5---5--5------5-----|
D|5------5---5--5------5-----|5------5---5--5------5-----|
A|3------3---3--3------3-----|3------3---3--3------3-----|
E|---------------------------|---------------------------|
  I want you I  want you  I   want          you
e|------ ------ ------ ------|
B|---------------------------|
G|---------------------------|
D|1--------------------------|
A|---------------------------|
E|---------------------------|




e|------ ------ ------ ------|4----- 4---4- 4----- 4-----|
B|4------4------4------4-----|4------4---4--4------4-----|
G|6------6------6------6-----|5------5---5--5------5-----|
D|5------5------5------5-----|6------6---6--6------6-----|
A|6------6------6------6-----|6------6---6--6------6-----|
E|---------------------------|4------4---4--4------4-----|
     I     think you  know by now



e|3----- 3----- 3----- 3-----|3----- 3---3- 3----- 3-----|
B|3------3------3------3-----|4------4---4--4------4-----|
G|4------4------4------4-----|5------5---5--5------5-----|
D|5------5------5------5-----|5------5---5--5------5-----|
A|5------5------5------5-----|3------3---3--3------3-----|
E|3------3------3------3-----|---------------------------|
     I'll get  to  you  somehow                       Until



e|------ 3----- ------ 3-----|------ 3------ ------ 3----|
B|-------4-------------4-----|-------4--------------4----|
G|5-------------4------------|3--------------2-----------|
D|---------------------------|---------------------------|
A|---------------------------|---------------------------|
E|---------------------------|---------------------------|
         I      do     I'm    telling        you       so



e|------ 3----- 1----- ----/-|3----- 3---/- 3----- 3-----|
B|-------1------1------4---/-|3------3---/--3------3-----|
G|1---1---------1------1-----|0-------------0------------|
D|---------------------------|---------------------------|
A|---------------------------|---------------------------|
E|---------------------------|---------------------------|
  you'll        understand



e|0----- 0----- 0----- 0-----|------ 4---4- ------ 4-----|
B|1------1------1------1-----|-------4---4---------4-----|
G|0------0------0------0-----|-------1---1---------1-----|
D|2------2------2------2-----|-------1---1---------1-----|
A|3------3------3------3-----|-------3---3---------3-----|
E|---------------------------|-------1---1---------1-----|
  Michelle                           my     belle

  
  
e|1----- 1----- 1----- 1-----|2----- 2----- 2----- 2---2-|
B|3------3------3------3-----|1------1------1------1---1-|
G|3------3------3------3-----|2------2------2------2---2-|
D|3------3------3------3-----|1------1------1------1---1-|
A|1------1------1------1-----|---------------------------|
E|---------------------------|---------------------------|
  sont   les    mots   qui    vont   tres   bien    ensemble



e|3----- 3----- 2----- 2---3-|3----- 3----- 3----- 3-----|
B|3------3------1------1---3-|3------3------3------3-----|
G|0------0------2------2---0-|0------0------0------0-----|
D|0------0------1------1---0-|0------0------0------0-----|
A|2------2-------------------|2------2------2------3-----|
E|3------3-------------------|3------3------3------3-----|
                tres bien ensemble             and I will



e|------ 3----- ------ 3-----|------ 3------ ------ 3----|
B|-------4-------------4-----|-------4--------------4----|
G|5-------------4------------|3--------------2-----------|
D|---------------------------|---------------------------|
A|---------------------------|---------------------------|
E|---------------------------|---------------------------|               
  say    the    only          words  I      know     that



e|----3- 3----- 1----- ----/-|3----- 3----- ----3- 3-----|
B|----1--1------1------4---/-|3------3----------3--3-----|
G|1-------------1------1-----|0--------------------------|
D|---------------------------|---------------------------|
A|---------------------------|---------------------------|
E|---------------------------|---------------------------|
  you'll        understand                  my     Michelle



e|3----- 3----- 3----- 3-----|------ 4----- 4----- 4-----|
B|1------1------1------1-----|-------4------4------4-----|
G|0------0------0------0-----|-------1------1------1-----|
D|2------2------2------2-----|-------1------1------1-----|
A|3------3------3------3-----|-------3------3------3-----|
E|---------------------------|-------1------1------1-----|

e|------ ------ ------ ------|------ ------ ------ ------|
B|---------------------------|---------------------------|
G|---------------------------|---------------------------|
D|-----------0--2--------3-5-|6----\--------1------------|
A|3--------3-----------------|---------------------------|
E|---------------------------|---------------------------|




e|------ 3----- ------ ------|------ ------ ------ ------|
B|3------3------3------------|1-/----4------7-\----4-----|
G|3------3------3------3-----|2-/----5------8-\----5-----|
D|3------3------3------3-----|1-/----4------7-\----4-----|
A|1------1------1------1-----|---------------------------|
E|---------------------------|---------------------------|
 
e|------ ------ ------ ------|------ ------ ------ ------|
B|---------------------------|---------------------------|
G|---------------------------|---------------------------|
D|0---------0-1-3------------|------------0-1------------|
A|---------------------1-----|3---------3----------0-----|
E|---------------------------|---------------------------|




e|3----- 3----3 2----- 2----2|3----- 3----3 3----- ------|
B|3------3----0-1------1----1|3------3----3-3------------|
G|0------0----0-2------2----2|0------0----0-0------------|
D|--------------1------1----1|---------------------------|
A|---------------------------|---------------------------|
E|---------------------------|---------------------------|
                             
e|------ ------ ------ ------|------ ------ ------ ------|
B|---------------------------|---------------------------|
G|---------------------------|--------------------------0|
D|------------------1--------|---------------------2--3--|
A|2-------------0--------3---|2-----------------0--------|
E|---------------------------|----------------3----------|




e|3----- ----3- 3----- 3-----|------ 4----- ------ 4-----|
B|1----------1--1------1-----|-------4-------------4-----|
G|0----------0--0------0-----|-------1-------------1-----|
D|2----------2--2------2-----|-------1-------------1-----|
A|3----------3--3------3-----|-------3-------------3-----|
E|---------------------------|-------1-------------1-----|
  .........................Fade..........................
e|------ ------ ------ ------|------ ------ ------ ------|
B|---------------------------|---------------------------|
G|---------------------------|---------------------------|
D|-----------0--2--------3-5-|6----\--------1------------|
A|3--------3-----------------|---------------------------|
E|---------------------------|---------------------------| 


  

e|------ 3----- ------ ------|------ ------ ------ ------|
B|3------3------3------------|1-/----4------7-\----4-----|
G|3------3------3------3-----|2-/----5------8-\----5-----|
D|3------3------3------3-----|1-/----4------7-\----4-----|
A|1------1------1------1-----|---------------------------|
E|---------------------------|---------------------------| 
  .......................................................    
e|------ ------ ------ ------|------ ------ ------ ------|
B|---------------------------|---------------------------|
G|---------------------------|---------------------------|
D|0---------0-1-3------------|------------0-1------------|
A|---------------------1-----|3--------3-----------0-----|
E|---------------------------|---------------------------|








    B  Bend
    R  Release
    /  Slide up
    \  Slide down
    H  Hammer-on
    P  Pull-off
    ~  Vibrato
    +  Harmonic
    x  Mute note
   (.  Pause


Comments