Beatles - Maxwells Silver Hammer Chords & Tabs

 

Maxwells Silver Hammer Chords & Tabs

Beatles Chords & Tabs

Version: 2 Type: Tab 0 ratings
1 star 2 stars 3 stars 4 stars 5 stars
comments

Maxwells Silver Hammer Tab

   
------------------------------------------------------------------

     THE BEATLES - MAXWELL'S SILVER HAMMER (Lennon/McCartney) From
                   ABBEY ROAD album. Released on 26th September
                   1969.

------------------------------------------------------------------

     Tabbed by:PJVillanueva





Joan was quizzical; studied pataphysical
Science in the home.
Late nights all alone with a test tube.
Oh, oh, oh, oh.

Maxwell Edison, majoring in medicine,
Calls her on the phone.
"Can I take you out to the pictures,
Joa, oa, oa, oan?"

But as she's getting ready to go,
A knock comes on the door.

Bang! Bang! Maxwell's silver hammer
Came down upon her head.
Bang! Bang! Maxwell's silver hammer
Made sure that she was dead.

Back in school again Maxwell plays the fool again.       
Teacher gets annoyed.
Wishing to avoid and unpleasant
Sce, e, e, ene,                                         

She tells Max to stay when the class has gone away,
So he waits behind
Writing fifty times "I must not be
So, o, o, o.."                         

But when she turns her back on the boy,                 
He creeps up from behind.              

Bang! Bang! Maxwell's silver hammer
Came down upon her head.
Bang! Bang! Maxwell's silver hammer
Made sure that she was dead.                        

P. C. Thirty-one said, "We caught a dirty one."         
Maxwell stands alone
Painting testimonial pictures.
Oh, oh, oh, oh.

Rose and Valerie, screaming from the gallery   
Say he must go free
(Maxwell must go free)
The judge does not agree and he tells them
So, o, o, o.

But as the words are leaving his lips,       
A noise comes from behind.

Bang! Bang! Maxwell's silver hammer
Came down upon his head.
Bang! Bang! Maxwell's silver hammer
Made sure that he was dead.

Whoa, oh, oh, oh.
Silver hammer man 





                                    
  D                               B7
e|2------ 2------ 2------ 2------|2------ 2------ 2------ 2------|
B|3-------3-------3-------3------|4-------4-------4-------4------|
G|2-------2-------2-------2------|2-------2-------2-------2------|
D|0------------------------------|4-------4-------4-------4------|
A|----------------4--------------|2-----------------------2------|
E|-------------------------------|----------------2--------------|
  Joan    was    quizzical;       studied pataphysical



  Em
e|3------ 3------ 3------ 3------|3------ 3------ 3------ 3------|
B|5-------5-------5-------5------|5-------5-------5-------5------|
G|4-------4-------4-------4------|4-------4-------4-------4------|
D|2------------------------------|2-------0----------------------|
A|----------------2------------2-|----------------4-------2------|
E|-------------------------------|-------------------------------|
  Science         in      the home.



  A
e|0------ 0------ 0------ 0------|0------ 0------ 0------ 0------|
B|2-------2-------2-------2------|2-------2-------2-------2------|
G|2-------2-------2-------2------|2-------2-------2-------2------|
D|-------------------------------|2--------------------2---------|
A|0---------------4--------------|-------------0--4-------4------|
E|-------------------------------|-------------------------------|
  Late    nights  all     alone      with a   test    tube.
 


  D                               A
e|2------ 2------ 2------ 2------|0------ 0------ 0------ 0------|
B|3-------3-------3-------3------|2-------2-------2-------2------|
G|2-------2-------2-------2------|2-------2-------2-------2------|
D|0------------------------------|-------------------------------|
A|----------------4-------2------|0---------------2-------4------|
E|-------------------------------|-------------------------------|  
  Oh,             oh, oh,     oh.



  D                               B7
e|2------ 2------ 2------ 2------|2------ 2------ 2------ 2------|
B|3-------3-------3-------3------|4-------4-------4-------4------|
G|2-------2-------2-------2------|2-------2-------2-------2------|
D|0------------------------------|4-------4-------4-------4------|
A|----------------4--------------|2-----------------------2------|
E|-------------------------------|----------------2--------------|
  Maxwell         Edison,         majoring    in  medicine,



  Em
e|3------ 3------ 3------ 3------|3------ 3------ 3------ 3------|
B|5-------5-------5-------5------|5-------5-------5-------5------|
G|4-------4-------4-------4------|4-------4-------4-------4------|
D|2------------------------------|2-------0----------------------|
A|----------------2------------2-|----------------4-------2------|
E|-------------------------------|-------------------------------|
  Calls   her     on      the phone.



  A
e|0------ 0------ 0------ 0------|0------ 0------ 0------ 0------|
B|2-------2-------2-------2------|2-------2-------2-------2------|
G|2-------2-------2-------2------|2-------2-------2-------2------|
D|-------------------------------|2-----------------------2------|
A|0---------------4--------------|-------------0--4--------------|
E|-------------------------------|-------------------------------|
  "Can I          take    you out     to  the pictures,
 


  D                               A
e|2------ 2------ 2------ 2------|0------ 0------ 0------ 0------|
B|3-------3-------3-------3------|2-------2-------2-------2------|
G|2-------2-------2-------2------|2-------2-------2-------2------|
D|0------------------------------|------------------------2------|
A|----------------4-------2------|0---------------0-----4------4-|
E|-------------------------------|-------------------------------|   
  Joa,            oa, oa,     oan?"                            But


  X       x               x               x               x
  e
e|0------ ------- ------- -------|------- ------- ------- -------|
B|0------------------------------|-------------------------------|
G|1------------------------------|-------------------------------|
D|2------------------------------|-------------------------------|
A|-------------------------------|-------------------------------|
E|-------------------------------|-------------------------------|
  as      she's   getting     ready       to  go,              a


  X       x               x
  A
e|------- ------- ------- -------|------- ------- ------- -------|
B|-------------------------------|-------------------------------|
G|2------------------------------|-----2--2--------4------6------|
D|2------------------------------|-------------------------------|
A|0------------------------------|-----0--0--------2------4------|
E|-------------------------------|-------------------------------|
  knock   comes   on      the door.
 


  D
e|2------ 2------ 2------ 2------|2------ 2------ 2------ 2------|
B|3-------3-------3-------3------|3-------3-------3-------3------|
G|2-------2-------2-------2------|2-------2-------2-------2------|
D|0------------------------------|0---------------0-------1------|
A|----------------0--------------|-------------4-----------------|
E|-------------------------------|-------------------------------|   
  Bang!   Bang!   Maxwell's       silver      hammer      came
e|------- ------- ------- 5------|------- 2P0---- ------- -------|
B|3-----------------------7------|--------3P0-----3--------------|
G|2-------2----------------------|----------------2-------2----/-|
D|--------4----------------------|------------------------4----/-|
A|-------------------------------|-------------------------------|
E|-------------------------------|-------------------------------|    

e|------- ------- ------- -------|------- ------- ------- -------|
B|------------------------3------|--------3P0--------------------|
G|--------2---------------2------|--------2-------2--------------|
D|4-------4----------------------|----------------4-------4----/-|
A|5------------------------------|------------------------5----/-|
E|-------------------------------|-------------------------------|




  e
e|4------ 4------ 4------ 4------|4------ 4------ 4------ 4------|
B|5-------5-------5-------5------|5-------5-------3-------3------|
G|4-------4-------4-------4------|4-------4-------4-------4------|
D|2------------------------------|2------------------------------|
A|----------------2--------------|----------------2--------------|
E|-------------------------------|-------------------------------|
  down        upon    her     head.
e|------- ------- ------- 7------|------- ------- ------- -------|
B|5-------7---------------9------|--------9P7--------------------|
G|4-------4----------------------|--------9-------9--------------|
D|-------------------------------|----------------9--------------|
A|-------------------------------|-------------------------------|
E|-------------------------------|-------------------------------|

e|------- ------- ------- -------|------- ------- ------- -------|
B|-------------------------------|-------------------------------|
G|--------4---------------9------|--------9P6-----4-----H-7------|
D|6-------6---------------9------|--------6-------6--------------|
A|7------------------------------|-------------------------------|
E|-------------------------------|-------------------------------|




  A
e|0------ 0------ 0------ 0------|0------ 0------ ------- -------|
B|2-------2-------2-------2------|2-------2-------2-------2------|
G|2-------2-------2-------2------|2-------2-------2-------2------|
D|----------------2------------2-|-------------2--2-------2------|  
A|0------------------------------|0---------------0----4---------|
E|-------------------------------|-------------------------------|     
  Bang!   Bang!   Maxwell's       silver      hammer      made
e|------- ------- ------- 12-----|------- 10----- -9----- -------|
B|10------12--------------10-----|--------10------10------10---8-|
G|-9-------9---------------------|-------------------------9---7-|
D|-------------------------------|-------------------------------|
A|-------------------------------|-------------------------------|
E|-------------------------------|-------------------------------|

e|------- ------- ------- -------|------- ------- ------- -------|
B|10----------------------10-----|----------------10-------------|
G|-9-------9---------------9-----|---------9-------9-------9-----|
D|--------11---------------------|--------11--------------11-----|
A|-------------------------------|-------------------------------|
E|-------------------------------|-------------------------------|




  Em                              D       A       D
e|3------ 3------ 0------ 0------|2------ 0------ 2------ -------|
B|5-------5-------2-------2------|3-------2-------3--------------|
G|4-------4-------2-------2------|2-------2-------2--------------|
D|2------------------------------|0---------------0--------------|
A|--------2-------0-------2------|--------0----------------------|
E|-------------------------------|-------------------------------|
  sure    that    she was     dead.
e|------- ------- ------- -------|------- ------- 10-\--- -------|
B|8-------8--------8------8------|7--/------------10-\-----------|
G|7H9-----7------B10R9----7H9----|7--/---------------------------|
D|-------------------------------|-------------------------------|
A|-------------------------------|-------------------------------|
E|-------------------------------|-------------------------------|

e|------- ------- ------- -------|------- ------- ------- -------|
B|8-------8--------8------8------|7--/------------10-\-----------|
G|7-------7--------7------7------|7--/------------11-\-----------|
D|-------------------------------|-------------------------------|
A|-------------------------------|-------------------------------|
E|-------------------------------|-------------------------------|    




  D               F#              Bm              D7
e|2------ ------- 2------ -------|2------ ------- 2------ -------|
B|3---------------2--------------|3---------------1--------------|
G|2---------------3--------------|4---------------2--------------|
D|0---------------4--------------|4---------------0--------------|
A|----------------4--------------|2------------------------------|
E|----------------2--------------|-------------------------------|

e|------- ------- ------- -------|------- ------- ------- -------|
B|-------------------------------|3---------------1--------------|
G|----------------3--------------|-------------------------------|
D|4------------------------------|-------------------------------|
A|-------------------------------|-------------------------------|
E|-------------------------------|-------------------------------|

e|------- ------- ------- -------|------- ------- ------- -------|
B|-------------------------------|-------------------------------|
G|-------------------------------|4---------------2--------------|
D|4---------------4--------------|-------------------------------|
A|-------------------------------|-------------------------------|
E|-------------------------------|-------------------------------|




  G
e|3------ ------- ------- -------|------- ------- ------- -------|
B|3------------------------------|-------------------------------|
G|0------------------------------|-------------------------------|
D|0------------------------------|-------------------------------|
A|--------0-------2-------4------|5----7--4-------5-------0------|
E|3------------------------------|-------------------------------|

e|------- ------- 3------ 0------|2---3P2 0------ 2------ -------|
B|0-------3----------------------|------------------------3------|
G|-------------------------------|-------------------------------|
D|-------------------------------|-------------------------------|
A|-------------------------------|-------------------------------|
E|-------------------------------|-------------------------------|

e|------- ------- ------- -------|------- ------- ------- -------|
B|----------------0-------2------|3---5P3P2-------3--------------|
G|0-------2----------------------|------------------------2------|
D|-------------------------------|-------------------------------|
A|-------------------------------|-------------------------------|
E|-------------------------------|-------------------------------|




  D                               B7
e|2------ 2------ 2------ 2------|2------ 2------ 2------ 2------|
B|3-------3-------3-------3------|4-------4-------4-------4------|
G|2-------2-------2-------2------|2-------2-------2-------2------|
D|0------------------------------|4-------4-------4-------4------|
A|----------------4--------------|2-----------------------2------|
E|-------------------------------|----------------2--------------|    
  Back    in      school again    Maxwell plays   fool again.
                                              the
e|------- ------- 5------ -------|7------ ------- 14----- -------|
B|-------------------------------|-------------------------------|
G|2------------------------------|-------------------------------|
D|-------------------------------|-------------------------------|
A|-------------------------------|-------------------------------|
E|-------------------------------|-------------------------------|

e|------- ------- ------- -------|------- ------- ------- -------|
B|-------------------------------|-------------------------------|
G|-------------------------------|-------------------------------|
D|0------------------------------|-------------------------------|
A|-------------------------------|-------------------------------|
E|-------------------------------|-------------------------------|   




  Em
e|3------ 3------ 3------ 3------|3------ 3------ 3------ 3------|
B|5-------5-------5-------5------|5-------5-------5-------5------|
G|4-------4-------4-------4------|4-------4-------4-------4------|
D|2------------------------------|2-------0----------------------|
A|----------------2------------2-|----------------4-------2------|
E|-------------------------------|-------------------------------|
  Teacher         gets    annoyed.
e|12----- ------- ------- -------|12----- 14----- 15----- 12-----|
B|----------------12-------------|-------------------------------|
G|-------------------------------|-------------------------------|
D|-------------------------------|-------------------------------|
A|-------------------------------|-------------------------------|
E|-------------------------------|-------------------------------|




  A
e|0------ 0------ 0------ 0------|0------ 0------ 0------ 0------|
B|2-------2-------2-------2------|2-------2-------2-------2------|
G|2-------2-------2-------2------|2-------2-------2-------2------|
D|-------------------------------|2--------------------2---------|
A|0---------------4--------------|-------------0--4-------4------|
E|-------------------------------|-------------------------------|
  Wishing         to      avoid       an  unpleasant
e|------- ------- ------- -------|12----- ------- ------- -------|
B|14----------------------15-----|-------------------------------|
G|-------------------------------|----------------14-------------|
D|-------------------------------|-------------------------------|
A|-------------------------------|-------------------------------|
E|-------------------------------|-------------------------------|

 


  D                               A
e|2------ 2------ 2------ 2------|0------ 0------ 0------ 0------|
B|3-------3-------3-------3------|2-------2-------2-------2------|
G|2-------2-------2-------2------|2-------2-------2-------2------|
D|0------------------------------|-------------------------------|
A|----------------4-------2------|0---------------2-------4------|
E|-------------------------------|-------------------------------|  
  Sce,            e,  e,      ene,
e|------- ------- 14----- -------|------- ------- ------- -------|
B|15----------------------15-----|-------------------------------|
G|-------------------------------|14-----------------------------|
D|-------------------------------|-------------------------------|
A|-------------------------------|-------------------------------|
E|-------------------------------|-------------------------------|  

e|------- ------- ------- -------/5------ 5------ 5------ 3------|
B|-------------------------------/5-------5H7-----5-------3------|
G|-------------------------------|-------------------------------|
D|-------------------------------|-------------------------------|
A|-------------------------------|-------------------------------|
E|-------------------------------|-------------------------------|




  D                               B7
e|2------ 2------ 2------ 2------|2------ 2------ 2------ 2------|
B|3-------3-------3-------3------|4-------4-------4-------4------|
G|2-------2-------2-------2------|2-------2-------2-------2------|
D|0------------------------------|4-------4-------4-------4------|
A|----------------4--------------|2-----------------------2------|
E|-------------------------------|----------------2--------------|
  She     tells   Max to  stay    when the class  gone away,
                                              has
e|------- ------- ------- -------|------- ------- 14----- -------|
B|-------------------------------|12-----------------------------|
G|----------------14-------------|-------------------------------|
D|12-----------------------------|-------------------------------|
A|-------------------------------|-------------------------------|
E|-------------------------------|-------------------------------|

e|2------ ------- ------- -------|------- ------- ------- -------|
B|3------------------------------|-------------------------------|
G|-------------------------------|-------------------------------|
D|-------------------------------|-------------------------------|
A|-------------------------------|-------------------------------|
E|-------------------------------|-------------------------------|




  Em   
e|3------ 3------ 3------ 3------|3------ 3------ 3------ 3------|
B|5-------5-------5-------5------|5-------5-------5-------5------|
G|4-------4-------4-------4------|4-------4-------4-------4------|
D|2------------------------------|2-------0----------------------|
A|----------------2------------2-|----------------4-------2------|
E|-------------------------------|-------------------------------|
  So      he      waits   behind
e|12----- ------- ------- -------|12----- 14----- 15----- 12-----|
B|----------------12-------------|-------------------------------|
G|-------------------------------|-------------------------------|
D|-------------------------------|-------------------------------|
A|-------------------------------|-------------------------------|
E|-------------------------------|-------------------------------|




  A
e|0------ 0------ 0------ 0------|0------ 0------ 0------ 0------|
B|2-------2-------2-------2------|2-------2-------2-------2------|
G|2-------2-------2-------2------|2-------2-------2-------2------|
D|-------------------------------|2-----------------------2------|
A|0---------------4--------------|-------------0--4--------------|
E|-------------------------------|-------------------------------|
  Writing         fifty       times  "I   must not     be
e|------- ------- ------- -------|12----- ------- ------- -------|
B|14----------------------15-----|-------------------------------|
G|-------------------------------|----------------14-------------|
D|-------------------------------|-------------------------------|
A|-------------------------------|-------------------------------|
E|-------------------------------|-------------------------------|

 


  D                               A
e|2------ 2------ 2------ 2------|0------ 0------ 0------ 0------|
B|3-------3-------3-------3------|2-------2-------2-------2------|
G|2-------2-------2-------2------|2-------2-------2-------2------|
D|0------------------------------|------------------------2------|
A|----------------4-------2------|0---------------0-----4------4-|
E|-------------------------------|-------------------------------|   
  So,             o,  o,      o.."                             But
e|------- ------- 14----- -------|------- ------- ------- -------|
B|15------------------15---------|-------------------------------|
G|----------------------------14-|-------------------------------|
D|-------------------------------|-------------------------------|
A|-------------------------------|-------------------------------|
E|-------------------------------|-------------------------------|



  X       x               x               x               x
  e
e|0------ ------- ------- -------|------- ------- ------- -------|
B|0------------------------------|-------------------------------|
G|1------------------------------|-------------------------------|
D|2------------------------------|-------------------------------|
A|-------------------------------|-------------------------------|
E|-------------------------------|-------------------------------|
  when    she turns  her      back    on  the boy,             he


  X       x               x
  A5
e|------- ------- ------- -------|------- ------- ------- -------|
B|-------------------------------|-------------------------------|
G|2------------------------------|-----2--2--------4------6------|
D|2------------------------------|-------------------------------|
A|0------------------------------|-----0--0--------2------4------|
E|-------------------------------|-------------------------------|
  creeps  up      from    behind.
e|------- ------- ------- -------|------- ------- ------- -----2-|
B|-------------------------------|-----------------------------3-|
G|-------------------------------|-----------------------------2-|
D|-------------------------------|-----------------------------0-|
A|-------------------------------|-------------------------------|
E|-------------------------------|-------------------------------|

 


  D
e|2------ 2------ 2------ 2------|2------ 2------ 2------ 2------|
B|3-------3-------3-------3------|3-------3-------3-------3------|
G|2-------2-------2-------2------|2-------2-------2-------2------|
D|0------------------------------|0---------------0-------1------|
A|----------------0--------------|-------------4-----------------|
E|-------------------------------|-------------------------------|   
  Bang!   Bang!   Maxwell's       silver      hammer      came
e|------- ------- ------- 5------|------- 2P0---- ------- -------|
B|3-----------------------7------|--------3P0-----3--------------|
G|2-------2----------------------|----------------2-------2----/-|
D|--------4----------------------|------------------------4----/-|
A|-------------------------------|-------------------------------|
E|-------------------------------|-------------------------------|    

e|------- ------- ------- -------|------- ------- ------- -------|
B|------------------------3------|--------3P0--------------------|
G|--------2---------------2------|--------2-------2--------------|
D|4-------4----------------------|----------------4-------4----/-|
A|5------------------------------|------------------------5----/-|
E|-------------------------------|-------------------------------|

e|2------ 2------ 2------ 2------|2------ 2----2- 2----2- 2----0-|
B|3-------3-------3-------3------|3-------3----3--3----3--3----0-|
G|2-------2-------2-------2------|2-------2----2--2----2--2----1-|
D|0-------0-------0-------0------|0-------0----0--0----0--0----2-|
A|-------------------------------|-----------------------------2-|
E|-------------------------------|-----------------------------0-|




  e
e|4------ 4------ 4------ 4------|4------ 4------ 4------ 4------|
B|5-------5-------5-------5------|5-------5-------5-------5------|
G|4-------4-------4-------4------|4-------4-------4-------4------|
D|2------------------------------|2------------------------------|
A|----------------2--------------|----------------2--------------|
E|-------------------------------|-------------------------------|
  down        upon    her     head.
                                       (Dodo    dodooooooodo)
e|------- ------- ------- 7------|------- ------- ------- -------|
B|5-------7---------------9------|--------9P7--------------------|
G|4-------4----------------------|--------9-------9--------------|
D|-------------------------------|----------------9--------------|
A|-------------------------------|-------------------------------|
E|-------------------------------|-------------------------------|

e|------- ------- ------- -------|------- ------- ------- -------|
B|-------------------------------|-------------------------------|
G|--------4---------------9------|--------9P6-----4-----H-7------|
D|6-------6---------------9------|--------6-------6--------------|
A|7------------------------------|-------------------------------|
E|-------------------------------|-------------------------------|

e|0------ 0------ 0------ 0------|0------ 0------ 0------ 0------|
B|0-------0-------0-------0------|0-------0-------0-------0------|
G|1-------1-------1-------1------|1-------1-------1-------1------|
D|2-------2-------2-------2------|2-------2-------2-------2------|
A|2-------2-------2-------2------|2-------2-------2-------2------|
E|0-------0-------0-------0------|0-------0-------0-------0------|




  A
e|0------ 0------ 0------ 0------|0------ 0------ ------- -------|
B|2-------2-------2-------2------|2-------2-------2-------2------|
G|2-------2-------2-------2------|2-------2-------2-------2------|
D|----------------2------------2-|-------------2--2-------2------|  
A|0------------------------------|0---------------0----4---------|
E|-------------------------------|-------------------------------| 
  Bang!   Bang!   Maxwell's       silver      hammer      made
e|------- ------- ------- 12-----|------- 10----- -9----- -------|
B|10------12--------------10-----|--------10------10------10---8-|
G|-9-------9---------------------|-------------------------9---7-|
D|-------------------------------|-------------------------------|
A|-------------------------------|-------------------------------|
E|-------------------------------|-------------------------------|

e|------- ------- ------- -------|------- ------- ------- -------|
B|10----------------------10-----|----------------10-------------|
G|-9-------9---------------9-----|---------9-------9-------9-----|
D|--------11---------------------|--------11--------------11-----|
A|-------------------------------|-------------------------------|
E|-------------------------------|-------------------------------|

e|0------ 0------ 0------ 0------|0------ 0------ 0----0- 0----0-|
B|2-------2-------2-------2------|2-------2-------2----2--2----2-|
G|2-------2-------2-------2------|2-------2-------2----2--2----2-|
D|2-------2-------2-------2------|2-------2-------2----2--2----2-|
A|0-------0-------0-------0------|0-------0-------0----0--0----0-|
E|-------------------------------|-------------------------------|




  Em                              A
e|3------ 3------ 3------ 3------|------- ------- ------- -------|
B|5-------5-------5-------5------|-------------------------------|  
G|4-------4-------4-------4------|2-------2-------2-------2------|
D|2------------------------------|2-------2-------2-------2------|
A|----------------2--------------|0-------0-------2-------4------|
E|-------------------------------|-------------------------------|
  sure    that    she was     dead.
e|------- ------- ------- -------|------- ------- ------- -------|
B|8-------8--------8------8------|10-/---------------------------|
G|7H9-----7------B10R9----7H9----|-9-/---------------------------|
D|-------------------------------|-------------------------------|
A|-------------------------------|-------------------------------|
E|-------------------------------|-------------------------------|

e|------- ------- ------- -------|------- ------- ------- -------|
B|8-------8--------8------8------|10-/---------------------------|   
G|9-------7--------9------9------|-9-/---------------------------|
D|-------------------------------|-------------------------------|
A|-------------------------------|-------------------------------|
E|-------------------------------|-------------------------------|    

e|0------ 0----0- 0------ 0------|0------ 0------ 0------ 0----0-|
B|0-------0----0--0-------0------|2-------2-------2-------2----2-|
G|1-------1----1--1-------1------|2-------2-------2-------2----2-|
D|2-------2----2--2-------2------|2-------2-------2-------2----2-|
A|2-------2----2--2-------2------|0-------0-------0-------0----0-|
E|0-------0----0--0-------0------|-------------------------------|   




  D                
e|2------ 2------ 2------ 2------|2------ 2------ 2------ 2------|    
B|3-------3-------3-------3------|3-------3-------3-------3------|
G|2-------2-------2-------2------|2-------2-------2-------2------|
D|0------------------------------|0---------------0-------1------|
A|----------------0--------------|-------------4-----------------|
E|-------------------------------|-------------------------------|   
  
e|------- ------- ------- 5------|------- 2P0---- ------- -------|
B|3-----------------------7------|--------3P0-----3--------------|
G|2-------2----------------------|----------------2-------2----/-|
D|--------4----------------------|------------------------4----/-|
A|-------------------------------|-------------------------------|
E|-------------------------------|-------------------------------|    

e|------- ------- ------- -------|------- ------- ------- -------|
B|------------------------3------|--------3P0--------------------|
G|--------2---------------2------|--------2-------2--------------|
D|4-------4----------------------|----------------4-------4----/-|
A|5------------------------------|------------------------5----/-|
E|-------------------------------|-------------------------------|

e|2------ 2------ 2----2- 2------|2------ 2----2- 2----2- 2----0-|
B|3-------3-------3----3--3------|3-------3----3--3----3--3----0-|
G|2-------2-------2----2--2------|2-------2----2--2----2--2----1-|
D|0-------0-------0----0--0------|0-------0----0--0----0--0----2-|
A|-------------------------------|-----------------------------2-|
E|-------------------------------|-----------------------------0-|




  e
e|4------ 4------ 4------ 4------|4------ 4------ 4------ 4------|    
B|5-------5-------5-------5------|5-------5-------3-------3------|
G|4-------4-------4-------4------|4-------4-------4-------4------|  
D|2------------------------------|2------------------------------|
A|----------------2--------------|----------------2--------------|
E|-------------------------------|-------------------------------|
                                       (Dodo    dodooooooodo)
e|------- ------- ------- 7------|------- ------- ------- -------|
B|5-------7---------------9------|--------9P7--------------------|
G|4-------4----------------------|--------9-------9--------------|
D|-------------------------------|----------------9--------------|
A|-------------------------------|-------------------------------|
E|-------------------------------|-------------------------------|
[ Tab from: http://www.guitartabs.cc/tabs/b/beatles/maxwells_silver_hammer_tab_ver_2.html ]
e|------- ------- ------- -------|------- ------- ------- -------|
B|-------------------------------|-------------------------------|
G|--------4---------------9------|--------9P6-----4-----H-7------|
D|6-------6---------------9------|--------6-------6--------------|
A|7------------------------------|-------------------------------|
E|-------------------------------|-------------------------------|

e|0------ 0------ -----0- 0------|0----0- 0----0- 0------ 0------|
B|0-------0------------0--0------|0----0--0----0--0-------0------|
G|1-------1------------1--1------|1----1--1----1--1-------1------|
D|2-------2------------2--2------|2----2--2----2--2-------2------|
A|2-------2------------2--2------|2----2--2----2--2-------2------|
E|0-------0------------0--0------|0----0--0----0--0-------0------|




  A
e|0------ 0------ 0------ 0------|0------ 0------ 0------ -------|
B|2-------2-------2-------2------|2-------2-------2-------2------|
G|2-------2-------2-------2------|2-------2-------2-------2------|
D|----------------2------------2-|-------------2----------2------|  
A|0------------------------------|0---------------0----4---------|
E|-------------------------------|-------------------------------| 
  
e|------- ------- ------- 12-----|------- 10----- -9----- -------|
B|10------12--------------10-----|--------10------10------10---8-|
G|-9-------9---------------------|-------------------------9---7-|
D|-------------------------------|-------------------------------|
A|-------------------------------|-------------------------------|
E|-------------------------------|-------------------------------|

e|------- ------- ------- -------|------- ------- ------- -------|
B|10----------------------10-----|----------------10-------------|
G|-9-------9---------------9-----|---------9-------9-------9-----|
D|--------11---------------------|--------11--------------11-----|
A|-------------------------------|-------------------------------|
E|-------------------------------|-------------------------------|

e|0------ 0------ 0----0- 0------|0------ 0------ 0----0- 0----0-|
B|2-------2-------2----2--2------|2-------2-------2----2--2----0-|
G|2-------2-------2----2--2------|2-------2-------2----2--2----0-|
D|2-------2-------2----2--2------|2-------2-------2----2--2----2-|
A|0-------0-------0----0--0------|0-------0-------0----0--0----2-|
E|-------------------------------|-----------------------------0-|




  Em              A               D       A       D
e|3------ 3------ 0------ 0------|2------ 0------ 2------ -------|
B|5-------5-------2-------2------|3-------2-------3--------------|
G|4-------4-------2-------2------|2-------2-------2--------------|
D|2------------------------------|0---------------0--------------|
A|--------2-------0-------2------|--------0----------------------|
E|-------------------------------|-------------------------------|
 
e|------- ------- ------- -------|------- ------- 10-\--- -------|
B|8-------8--------8------8------|7--/------------10-\-----------|
G|7H9-----7------B10R9----7H9----|7--/---------------------------|
D|-------------------------------|-------------------------------|
A|-------------------------------|-------------------------------|
E|-------------------------------|-------------------------------|

e|------- ------- ------- -------|------- ------- ------- -------|
B|8-------8--------8------8------|7--/------------10-\-----------|
G|7-------7--------7------7------|7--/------------11-\-----------|
D|-------------------------------|-------------------------------|
A|-------------------------------|-------------------------------|
E|-------------------------------|-------------------------------|    

e|0------ 0----0- 0------ 0----0-|2------ ------- 2------ -------|
B|0-------0----0--2-------2----2-|3---------------3--------------|
G|0-------0----0--2-------2----2-|2---------------2--------------|
D|2-------2----2--2-------2----2-|0---------------0--------------|
A|2-------2----2--0-------0----0-|-------------------------------|
E|0-------0----0-----------------|-------------------------------|




  D               F#              Bm              D7
e|------- ------5 ------- ---2--6|------- ------7 ------- ------8|
B|-----------7------------2------|-----------7---------------7---|
G|--------7-------------3--------|--------7---------------7------|
D|---4--7------------4-----------|------9------------4--7--------|
A|5---------------4--------------|---9---------------------------|
E|-------------------------------|7---------------5--------------|

e|2------ ------- 2------ -------|2------ ------- 2------ -------|
B|3---------------2--------------|3---------------1--------------|
G|2---------------3--------------|4---------------2--------------|
D|0---------------4--------------|4---------------0--------------|
A|----------------4--------------|2------------------------------|
E|----------------2--------------|-------------------------------|




  G
e|7------ ------- ------- -------|------- ------- ------- -------|
B|8------------------------------|-------------------------------|
G|7------------------------------|-------------------------------|
D|-------------------------------|-------------------------------|
A|-------------------------------|-------------------------------|
E|-------------------------------|-------------------------------|

e|3------ ------- ------- -------|------- ------- ------- -------|
B|3------------------------------|-------------------------------|
G|0------------------------------|-------------------------------|
D|0------------------------------|-------------------------------|
A|--------0-------2-------4------|5----7--4-------5-------0------|
E|3------------------------------|-------------------------------|   




  D                               B7
e|2------ 2------ 2------ 2------|2------ 2------ 2------ 2------|
B|3-------3-------3-------3------|4-------4-------4-------4------|
G|2-------2-------2-------2------|2-------2-------2-------2------|
D|0------------------------------|4-------4-------4-------4------|
A|----------------4--------------|2-----------------------2------|
E|-------------------------------|----------------2--------------|    
  P.      C.      Thirty -one    said,"We caught a dirty  one."
e|------- ------- ------- -------|------- ------- ------- -------|
B|-------------------------------|--------4-------5-------7------|   
G|------------------------7------|4------------------------------|
D|--------4-------7--------------|-------------------------------|
A|5------------------------------|-------------------------------|
E|-------------------------------|-------------------------------|




  Em
e|3------ 3------ 3------ 3------|3------ 3------ 3------ 3------|
B|5-------5-------5-------5------|5-------5-------5-------5------|
G|4-------4-------4-------4------|4-------4-------4-------4------|
D|2------------------------------|2-------0----------------------|
A|----------------2------------2-|----------------4-------2------|
E|-------------------------------|-------------------------------|
  Maxwell         stands  alone
e|3------ ------- ------- -------|------- ------- ------- -------|
B|--------5----------------------|-------------------------------|
G|----------------4--------------|-------------------------------|
D|------------------------5------|--------4-------5--------------|
A|-------------------------------|7-----------------------7------|
E|-------------------------------|-------------------------------|




  A              
e|0------ 0------ 0------ 0------|0------ 0------ 0------ 0------|
B|2-------2-------2-------2------|2-------2-------2-------2------|
G|2-------2-------2-------2------|2-------2-------2-------2------|
D|-------------------------------|2--------------------2---------|
A|0---------------4--------------|-------------0--4-------4------|
E|-------------------------------|-------------------------------|
  Painting        testimonial                     pictures.
e|------- ------- ------- -------|------- ------- ------- -------|
B|-------------------------------|-------------------------------|
G|-------------------------------|-------------------------------|
D|------------------------7------|5-------4----------------------|
A|--------4-------7--------------|----------------7-------4------|
E|5------------------------------|-------------------------------|

 


  D                               A
e|2------ 2------ 2------ 2------|0------ 0------ 0------ 0------|
B|3-------3-------3-------3------|2-------2-------2-------2------|
G|2-------2-------2-------2------|2-------2-------2-------2------|
D|0------------------------------|-------------------------------|
A|----------------4-------2------|0---------------2-------4------|
E|-------------------------------|-------------------------------|  
  Oh,             oh, oh,     oh.
e|------- ------- ------- -------|------- ------- ------- -------|
B|-------------------------------|-------------------------------|
G|-------------------------------|-------------------------------|
D|--------4----------------------|-------------------------------|
A|5---------------4--------------|-------------------------------|
E|------------------------7------|5------------------------------|

e|------- ------- ------- -------|------- 5------ 5------ 3------|
B|-------------------------------|--------5H7-----5-------3------|
G|-------------------------------|-------------------------------| 
D|-------------------------------|-------------------------------|
A|-------------------------------|-------------------------------|
E|-------------------------------|-------------------------------|




  D                               B7
e|2------ 2------ 2------ 2------|2------ 2------ 2------ 2------|
B|3-------3-------3-------3------|4-------4-------4-------4------|
G|2-------2-------2-------2------|2-------2-------2-------2------|
D|0------------------------------|4-------4-------4-------4------|
A|----------------4--------------|2-----------------------2------|
E|-------------------------------|----------------2--------------|
  Rose    and     Valerie,      screaming from the gallery
e|------- ------- ------- -------|------- ------- ------- -------|
B|-------------------------------|--------4-------5-------7------|
G|------------------------7------|4------------------------------|
D|--------4-------7--------------|-------------------------------|
A|5------------------------------|-------------------------------|
E|-------------------------------|-------------------------------|
  
e|2------ ------- ------- -------|------- ------- ------- -------|
B|3------------------------------|-------------------------------|
G|-------------------------------|-------------------------------|
D|-------------------------------|-------------------------------|
A|-------------------------------|-------------------------------|
E|-------------------------------|-------------------------------|




  Em
e|3------ 3------ 3------ 3------|3------ 3------ 3------ 3------|
B|5-------5-------5-------5------|5-------5-------5-------5------|
G|4-------4-------4-------4------|4-------4-------4-------4------|
D|2------------------------------|2-------0----------------------|
A|----------------2------------2-|----------------4-------2------|
E|-------------------------------|-------------------------------|
  Say     he      must    go      free                         The
                                 (Maxwell         must    go 
e|3------ ------- ------- -------|------- ------- ------- -------|
B|--------5----------------------|-------------------------------|
G|----------------4--------------|-------------------------------|
D|------------------------5------|-------------------------------|
A|-------------------------------|7------------------------------|
E|-------------------------------|-------------------------------|
 




  A
e|0------ 0------ 0------ 0------|0------ 0------ 0------ 0------|
B|2-------2-------2-------2------|2-------2-------2-------2------|
G|2-------2-------2-------2------|2-------2-------2-------2------|
D|-------------------------------|2-----------------------2------|
A|0---------------4--------------|-------------0--4--------------|
E|-------------------------------|-------------------------------|
  judge   does    not     agree       and he  tells       them
  free)  
e|------- ------- ------- -------|------- ------- ------- -------|
B|-------------------------------|-------------------------------|
G|-------------------------------|-------------------------------|
D|------------------------7------|5-------4----------------------|
A|--------4-------7--------------|----------------7-------4------|
E|5------------------------------|-------------------------------|

 


  D                               A
e|2------ 2------ 2------ 2------|0------ 0------ 0------ 0------|
B|3-------3-------3-------3------|2-------2-------2-------2------|
G|2-------2-------2-------2------|2-------2-------2-------2------|
D|0------------------------------|------------------------2------|
A|----------------4-------2------|0---------------0-----4------4-|
E|-------------------------------|-------------------------------|
  so              o   o       o.                               But
e|------- ------- ------- -------|------- ------- ------- -------|
B|-------------------------------|-------------------------------|
G|-------------------------------|-------------------------------|
D|--------4----------------------|-------------------------------|
A|5---------------4--------------|-------------------------------|
E|------------------------7------|5------------------------------|   



  X       x               x               x               x
  e
e|0------ ------- ------- -------|------- ------- ------- -------|
B|0------------------------------|-------------------------------|
G|1------------------------------|-------------------------------|
D|2------------------------------|-------------------------------|
A|-------------------------------|-------------------------------|
E|-------------------------------|-------------------------------|
  as      the words       are leaving     his lips,            a


  X       x               x
  A
e|------- ------- ------- -------|------- ------- ------- -------|
B|-------------------------------|-------------------------------|
G|2------------------------------|-----2--2--------4------6------|
D|2------------------------------|-------------------------------|
A|0------------------------------|-----0--0--------2------4------|
E|-------------------------------|-------------------------------|    
  noise   comes   from    behind.
e|------- ------- ------- -------|------- ------- ------- -----2-|
B|-------------------------------|-----------------------------3-|
G|-------------------------------|-----------------------------2-|
D|-------------------------------|-----------------------------0-|
A|-------------------------------|-------------------------------|
E|-------------------------------|-------------------------------|



 
  D
e|2------ 2------ 2------ 2------|2------ 2------ 2------ 2------|      
B|3-------3-------3-------3------|3-------3-------3-------3------|
G|2-------2-------2-------2------|2-------2-------2-------2------|
D|0------------------------------|0---------------0-------1------|
A|----------------0--------------|-------------4-----------------|
E|-------------------------------|-------------------------------|   
  Bang!   Bang!   Maxwell's       silver      hammer      came
e|------- ------- ------- 5------|------- 2P0---- ------- -------|
B|3-----------------------7------|--------3P0-----3--------------|
G|2-------2----------------------|----------------2-------2----/-|
D|--------4----------------------|------------------------4----/-|
A|-------------------------------|-------------------------------|
E|-------------------------------|-------------------------------|    

e|------- ------- ------- -------|------- ------- ------- -------|
B|------------------------3------|--------3P0--------------------|
G|--------2---------------2------|--------2-------2--------------|
D|4-------4----------------------|----------------4-------4----/-|
A|5------------------------------|------------------------5----/-|
E|-------------------------------|-------------------------------|

e|2------ 2------ 2------ 2------|2------ 2------ 2----2- 2----0-|
B|3-------3-------3-------3------|3-------3-------3----3--3----0-|
G|2-------2-------2-------2------|2-------2-------2----2--2----1-|
D|0-------0-------0-------0------|0-------0-------0----0--0----2-|
A|-------------------------------|-----------------------------2-|
E|-------------------------------|-----------------------------0-|




  e
e|4------ 4------ 4------ 4------|4------ 4------ 4------ 4------|
B|5-------5-------5-------5------|5-------5-------5-------5------|
G|4-------4-------4-------4------|4-------4-------4-------4------|
D|2------------------------------|2------------------------------|
A|----------------2--------------|----------------2--------------|
E|-------------------------------|-------------------------------|
  down        upon    her     head.
                                       (Dodo    dodooooooodo)
e|------- ------- ------- 7------|------- ------- ------- -------|
B|5-------7---------------9------|--------9P7--------------------|
G|4-------4----------------------|--------9-------9--------------|
D|-------------------------------|----------------9--------------|
A|-------------------------------|-------------------------------|
E|-------------------------------|-------------------------------|

e|------- ------- ------- -------|------- ------- ------- -------|
B|-------------------------------|-------------------------------|
G|--------4---------------9------|--------9P6-----4-----H-7------|
D|6-------6---------------9------|--------6-------6--------------|
A|7------------------------------|-------------------------------|
E|-------------------------------|-------------------------------|

e|0------ 0------ -----0- 0------|0----0- 0------ 0------ 0------|
B|0-------0------------0--0------|0----0--0-------0-------0------|
G|1-------1------------1--1------|1----1--1-------1-------1------|
D|2-------2------------2--2------|2----2--2-------2-------2------|
A|2-------2------------2--2------|2----2--2-------2-------2------|
E|0-------0------------0--0------|0----0--0-------0-------0------|




  A
e|0------ 0------ 0------ 0------|0------ 0------ 0------ -------|
B|2-------2-------2-------2------|2-------2-------2-------2------|
G|2-------2-------2-------2------|2-------2-------2-------2------|
D|----------------2------------2-|-------------2----------2------|  
A|0------------------------------|0---------------0----4---------|
E|-------------------------------|-------------------------------| 
  Bang!   Bang!   Maxwell's       silver      hammer      made
e|------- ------- ------- 12-----|------- 10----- -9----- -------|
B|10------12--------------10-----|--------10------10------10---8-|
G|-9-------9---------------------|-------------------------9---7-|
D|-------------------------------|-------------------------------|
A|-------------------------------|-------------------------------|
E|-------------------------------|-------------------------------|

e|------- ------- ------- -------|------- ------- ------- -------|
B|10----------------------10-----|----------------10-------------|
G|-9-------9---------------9-----|---------9-------9-------9-----|
D|--------11---------------------|--------11--------------11-----|
A|-------------------------------|-------------------------------|
E|-------------------------------|-------------------------------|

e|0------ 0------ 0------ 0------|0------ 0------ 0----0- 0----0-|
B|2-------2-------2-------2------|2-------2-------2----2--2----2-|
G|2-------2-------2-------2------|2-------2-------2----2--2----2-|
D|2-------2-------2-------2------|2-------2-------2----2--2----2-|
A|0-------0-------0-------0------|0-------0-------0----0--0----0-|
E|-------------------------------|-------------------------------|




  Em                              A5
e|3------ 3------ 3------ 3------|------- ------- ------- -------|    
B|5-------5-------5-------5------|-------------------------------|
G|4-------4-------4-------4------|2-------2-------2-------2------|
D|2------------------------------|2-------2-------2-------2------|
A|----------------2------------0-|0----0--0----0--0-------0------|
E|-------------------------------|-------------------------------|
  sure    that    she was     dead.       Whoa,   oh,     oh, 
e|------- ------- ------- -------|------- ------- ------- -------|
B|8-------8--------8------8------|10-----------------------------|
G|7H9-----7------B10R9----7H9----|-9-----------------------------|
D|-------------------------------|-------------------------------|
A|-------------------------------|-------------------------------|
E|-------------------------------|-------------------------------|

e|------- ------- ------- -------|------- ------- ------- -------|
B|8-------8--------8------8------|10-----------------------------|   
G|9-------7--------9------9------|-9-----------------------------|
D|-------------------------------|-------------------------------|
A|-------------------------------|-------------------------------|
E|-------------------------------|-------------------------------|    

e|0------ 0------ 0----0- 0------|0------ 0------ 0--0--0 0----0-|
B|0-------0-------0----0--0------|2-------2-------2--2--2-2----2-|
G|1-------1-------1----1--1------|2-------2-------2--2--2-2----2-|
D|2-------2-------2----2--2------|2-------2-------2--2--2-2----2-|
A|2-------2-------2----2--2------|0-------0-------0--0--0-0----0-|
E|0-------0-------0----0--0------|-------------------------------| 




  D
e|2------ 2------ 2------ 2------|2------ 2------ 2------ 2------|      
B|3-------3-------3-------3------|3-------3-------3-------3------|
G|2-------2-------2-------2------|2-------2-------2-------2------|
D|0------------------------------|0---------------0-------1------|
A|----------------0--------------|-------------4-----------------|
E|-------------------------------|-------------------------------|    
  
e|------- ------- ------- 5------|------- 2P0---- ------- -------|
B|3-----------------------7------|--------3P0-----3--------------|
G|2-------2----------------------|----------------2-------2----/-|
D|--------4----------------------|------------------------4----/-|
A|-------------------------------|-------------------------------|
E|-------------------------------|-------------------------------|    

e|------- ------- ------- -------|------- ------- ------- -------|
B|------------------------3------|--------3P0--------------------|
G|--------2---------------2------|--------2-------2--------------|
D|4-------4----------------------|----------------4-------4----/-|
A|5------------------------------|------------------------5----/-|
E|-------------------------------|-------------------------------|

e|2------ 2------ 2----2- 2----2-|2------ 2------ 2----2- 2----0-|
B|3-------3-------3----3--3----3-|3-------3-------3----3--3----0-|
G|2-------2-------2----2--2----2-|2-------2-------2----2--2----1-|
D|0-------0-------0----0--0----0-|0-------0-------0----0--0----2-|
A|-------------------------------|-----------------------------2-|
E|-------------------------------|-----------------------------0-|

e|-----5-/10----- -----9- 7\5----|7/9\7-- ------- ------- 5------|
B|-------------------------------|-------------------------------|
G|-------------------------------|-------------------------------|
D|-------------------------------|-------------------------------|
A|-------------------------------|-------------------------------|
E|-------------------------------|-------------------------------|




  e
e|4------ 4------ 4------ 4------|4------ 4------ 4------ 4------|
B|5-------5-------5-------5------|5-------5-------5-------5------|
G|4-------4-------4-------4------|4-------4-------4-------4------|
D|2------------------------------|2------------------------------|
A|----------------2--------------|----------------2--------------|
E|-------------------------------|-------------------------------|
                                       (Dodo    dodooooooodo)
e|------- ------- ------- 7------|------- ------- ------- -------|
B|5-------7---------------9------|--------9P7--------------------|
G|4-------4----------------------|--------9-------9--------------|
D|-------------------------------|----------------9--------------|
A|-------------------------------|-------------------------------|
E|-------------------------------|-------------------------------|

e|------- ------- ------- -------|------- ------- ------- -------|
B|-------------------------------|-------------------------------|
G|--------4---------------9------|--------9P6-----4-----H-7------|
D|6-------6---------------9------|--------6-------6--------------|
A|7------------------------------|-------------------------------|
E|-------------------------------|-------------------------------|

e|0------ 0------ -----0- 0------|0----0- 0------ -----0- 0--0--0|
B|0-------0------------0--0------|0----0--0------------0--0--0--0|
G|1-------1------------1--1------|1----1--1------------1--1--1--1|
D|2-------2------------2--2------|2----2--2------------2--2--2--2|
A|2-------2------------2--2------|2----2--2------------2--2--2--2|
E|0-------0------------0--0------|0----0--0------------0--0--0--0|

e|-----5-/12----- -----9- 7\5----|7/9\7-- ------- ------- 5------|
B|-------------------------------|-------------------------------|
G|-------------------------------|-------------------------------|
D|-------------------------------|-------------------------------|
A|-------------------------------|-------------------------------|
E|-------------------------------|-------------------------------|




  A
e|0------ 0------ 0------ 0------|0------ 0------ 0------ -------|
B|2-------2-------2-------2------|2-------2-------2-------2------|
G|2-------2-------2-------2------|2-------2-------2-------2------|
D|----------------2------------2-|-------------2----------2------|  
A|0------------------------------|0---------------0----4---------|
E|-------------------------------|-------------------------------| 
  
e|------- ------- ------- 12-----|------- 10----- -9----- -------|
B|10------12--------------10-----|--------10------10------10---8-|
G|-9-------9---------------------|-------------------------9---7-|
D|-------------------------------|-------------------------------|
A|-------------------------------|-------------------------------|
E|-------------------------------|-------------------------------|

e|------- ------- ------- -------|------- ------- ------- -------|
B|10----------------------10-----|----------------10-------------|
G|-9-------9---------------9-----|---------9-------9-------9-----|
D|--------11---------------------|--------11--------------11-----|
A|-------------------------------|-------------------------------|
E|-------------------------------|-------------------------------|

e|0------ 0------ 0----0- 0------|0------ 0------ 0----0- 0----0-|
B|2-------2-------2----2--2------|2-------2-------2----2--2----2-|
G|2-------2-------2----2--2------|2-------2-------2----2--2----2-|
D|2-------2-------2----2--2------|2-------2-------2----2--2----2-|
A|0-------0-------0----0--0------|0-------0-------0----0--0----0-|
E|-------------------------------|-------------------------------|

e|-----5-/15----- -----9-\5------|7/9\7-- ------- ------- -------|
B|-------------------------------|------------------------10--10-|
G|-------------------------------|-------------------------------|
D|-------------------------------|-------------------------------|
A|-------------------------------|-------------------------------|
E|-------------------------------|-------------------------------|




  Em              A               D       A       D
e|3------ 3------ 0------ 0------|2------ ------- 2------ -------|    
B|5-------5-------2-------2------|3-------2-------3--------------|
G|4-------4-------2-------2------|2-------2-------2--------------|
D|2------------------------------|0-------2-------0--------------|
A|----------------0--------------|--------0----------------------|
E|-------------------------------|-------------------------------|
  
e|------- ------- ------- -------|------- ------- 10-\--- -------|
B|8-------8--------8------8------|7--/------------10-\-----------|
G|7H9-----7------B10R9----7H9----|7--/---------------------------|
D|-------------------------------|-------------------------------|
A|-------------------------------|-------------------------------|
E|-------------------------------|-------------------------------|

e|------- ------- ------- -------|------- ------- ------- -------|
B|8-------8--------8------8------|7--/------------10-\-----------|
G|7-------7--------7------7------|7--/------------11-\-----------|
D|-------------------------------|-------------------------------|
A|-------------------------------|-------------------------------|
E|-------------------------------|-------------------------------|    

e|0------ 0----0- 0------ 0----0-|2------ ------- 2------ -------|
B|0-------0----0--2-------2----2-|3---------------3--------------|
G|0-------0----0--2-------2----2-|2---------------2--------------|
D|2-------2----2--2-------2----2-|0---------------0--------------|
A|2-------2----2--0-------0----0-|-------------------------------|
E|0-------0----0-----------------|-------------------------------|  

e|10\9--- 7\5---- 7\5---- -------|------- ------- ------- -------|
B|------------------------7\5----|2-------2----------------------|
G|-------------------------------|-------------------------------|
D|-------------------------------|-------------------------------|
A|-------------------------------|-------------------------------|
E|-------------------------------|-------------------------------|




  D               F#              Bm              D7
e|2------ ------- 2------ -------|2------ ------- 2------ -------|
B|3---------------2--------------|3---------------1--------------|
G|2---------------3--------------|4---------------2--------------|
D|0---------------4--------------|4---------------0--------------|
A|----------------4--------------|2------------------------------|
E|----------------2--------------|-------------------------------|
  Silver                          hammer 
e|------- ------- ------- -------|------- ------- ------- -------|
B|-------------------------------|-----------------------------7H|
G|-------------------------------|-----------------------------7H|
D|-------------------------------|-------------------------------|
A|-------------------------------|-------------------------------|
E|-------------------------------|-------------------------------|

e|------- ------- ------- -------|------- ------- ------- -------|
B|-------------------------------|-----------------------------7H|
G|-------------------------------|-----------------------------7-|
D|-------------------------------|-------------------------------|
A|-------------------------------|-------------------------------|
E|-------------------------------|-------------------------------|

e|------- ------- ------- -------|------- ------- ------- -----17/
B|-------------------------------|-------------------------------|
G|-------------------------------|-------------------------------|
D|-------------------------------|-------------------------------|
A|-------------------------------|-------------------------------|
E|-------------------------------|-------------------------------|



                                          x       x
  G                                       A       D
e|3------ ------- ------- -------|------- ------- 2------ -------|
B|3------------------------------|--------2-------3--------------|
G|0------------------------------|--------2-------2--------------|
D|0------------------------------|0----2--2-------0--------------|
A|--------0-------2-------4------|--------4----------------------|
E|3------------------------------|-------------------------------|
  man
e|------- ------- ------- -------|------- ------- 10-\--- -------|
B|8-------8--------8------8------|7--/------------10-\-----------|
G|7H9-----7------B10R9----7H9----|7--/---------------------------|
D|-------------------------------|-------------------------------|
A|-------------------------------|-------------------------------|
E|-------------------------------|-------------------------------|

e|------- ------- ------- -------|------- ------- ------- -------|
B|8-------8--------8------8------|7--/------------10-\-----------|
G|7-------7--------7------7------|7--/------------11-\-----------|
D|-------------------------------|-------------------------------|
A|-------------------------------|-------------------------------|
E|-------------------------------|-------------------------------|    

e|22----- 19\17-- ------- -------|------- ------- ------- -------|
B|----------------18\17---15/17--|15-----------------------------|
G|-------------------------------|-------------------------------|
D|-------------------------------|-------------------------------|
A|-------------------------------|-------------------------------|
E|-------------------------------|-------------------------------|







        B  Bend
        R  Release
        /  Slide up
        \  Slide down
        H  Hammer-on
        P  Pull-off
        ~  Vibrato
        +  Harmonic
        x  Mute note
        .  Play note like a dot in standard notation
        ^  Ties two notes together
        (. Pause



Comments