Beatles - Maxwells Silver Hammer Chords & Tabs

 

Maxwells Silver Hammer Chords & Tabs

Beatles Chords & Tabs

Version: 3 Type: Bass Tab 0 ratings
1 star 2 stars 3 stars 4 stars 5 stars
comments

Maxwells Silver Hammer Bass Tab

MAXWELL’S SILVER HAMMER


Written by Paul McCartney


VERSE

  t=132

G|---------------------------------|---------------------------------|
D|-0-------------------------------|---------------------------------|
A|-----------------4---------------|-2-----------------------2-------|
E|---------------------------------|-----------------2---------------|



G|---------------------------------|---------------------------------|
D|-2-------------------------------|-2-------0-----------------------|
A|-----------------2------------2--|-----------------4-------2-------|
E|---------------------------------|---------------------------------|



G|---------------------------------|---------------------------------|
D|---------------------------------|-2--------------------2----------|
A|-0---------------4---------------|--------------0--4-------4-------|
E|---------------------------------|---------------------------------|



G|---------------------------------|---------------------------------|
D|-0-------------------------------|---------------------------------|
A|-----------------4-------2-------|-0------------0--2-------4-------|
E|---------------------------------|---------------------------------|



G|---------------------------------|---------------------------------|
D|-0-------------------------------|---------------------------------|
A|-----------------4---------------|-2-----------------------2-------|
E|---------------------------------|-----------------2---------------|



G|---------------------------------|---------------------------------|
D|-2-------------------------------|-2-------0-----------------------|
A|-----------------2------------2--|-----------------4-------2-------|
E|---------------------------------|---------------------------------|



G|---------------------------------|---------------------------------|
D|---------------------------------|-2-----------------------2-------|
A|-0---------------4---------------|--------------0--4---------------|
E|---------------------------------|---------------------------------|



G|---------------------------------|---------------------------------|
D|-0-------------------------------|-------------------------2-------|
A|-----------------4-------2-------|-0---------------0----4-------4--|
E|---------------------------------|---------------------------------|



PRE-CHORUS


G|---------------------------------|---------------------------------|
D|-2-------------------------------|-------------------------2--/-7--|
A|---------------------------------|---------------------------------|
E|---------------------------------|---------------------------------|



G|---------------------------------|---------------------------------|
D|---------------------------------|---------------------------------|
A|-0-------------------------------|------4--4-------2-------0-------|
E|---------------------------------|---------------------------------|



CHORUS



G|---------------------------------|---------------------------------|
D|---------------------------------|---------------------------------|
A|-5-------------------------------|-5------------4--5-------6-------|
E|-----------------5---------------|---------------------------------|



G|---------------------------------|---------------------------------|
D|-2----------------------------2--|------9--------------------------|
A|-----------------2---------------|-9/11----11\9-7--9-------7-------|
E|---------------------------------|---------------------------------|



G|-2------------2------------------|---------------------------------|
D|-----------------2------------2--|--------------2----------2-------|
A|---------------------------------|-0---------------0----4----------|
E|---------------------------------|---------------------------------|



G|---------------------------------|---------------------------------|
D|-2-------------------------------|-0---------------0---------------|
A|---------2-------0-------2-------|------0--2-----------------------|
E|---------------------------------|---------------------------------|



G|---------------------------------|---------------------------------|
D|-0-------------------------------|---------------------------------|
A|-----------------4---------------|-2---------------0---------------|
E|---------------------------------|---------------------------------|



G|---------------------------------|---------------------------------|
D|---------------------------------|---------------------------------|
A|---------0-------2-------4-------|-5----7--4-------5-------0-------|
E|-3-------------------------------|---------------------------------|



VERSE


G|---------------------------------|---------------------------------|
D|-0-------------------------------|---------------------------------|
A|-----------------4---------------|-2-----------------------2-------|
E|---------------------------------|-----------------2---------------|



G|---------------------------------|---------------------------------|
D|-2-------------------------------|-2-------0-----------------------|
A|-----------------2------------2--|-----------------4-------2-------|
E|---------------------------------|---------------------------------|



G|---------------------------------|---------------------------------|
D|---------------------------------|-2-----------------------2-------|
A|-0---------------4---------------|--------------0--4---------------|
E|---------------------------------|---------------------------------|



G|---------------------------------|---------------------------------|
D|-0-------------------------------|---------------------------------|
A|-----------------4-------2-------|-0---------------0-------2-------|
E|---------------------------------|---------------------------------|



G|---------------------------------|---------------------------------|
D|-0-------------------------------|---------------------------------|
A|-----------------4---------------|-2---------------2---------------|
E|---------------------------------|---------------------------------|



G|---------------------------------|---------------------------------|
D|-2-------------------------------|-2-------0-----------------------|
A|-----------------2------------2--|-----------------4-------2-------|
E|---------------------------------|---------------------------------|



G|---------------------------------|---------------------------------|
D|---------------------------------|-2-----------------------2-------|
A|-0---------------4---------------|-----------------4---------------|
E|---------------------------------|---------------------------------|



G|---------------------------------|---------------------------------|
D|-0-------------------------------|-------------------------2-------|
A|-----------------4-------2-------|-0---------------0----4-------4--|
E|---------------------------------|---------------------------------|



PRE-CHORUS


G|---------------------------------|---------------------------------|
D|-2-------------------------------|-------------------------2--/-7--|
A|---------------------------------|---------------------------------|
E|---------------------------------|---------------------------------|



G|---------------------------------|---------------------------------|
D|---------------------------------|---------------------------------|
A|-0-------------------------------|------4--4-------2-------0-------|
E|---------------------------------|---------------------------------|



CHORUS


G|---------------------------------|---------------------------------|
D|---------------------------------|---------------------------------|
A|-5-------------------------------|-5------------4--5-------6-------|
E|-----------------5---------------|---------------------------------|


[ Tab from: http://www.guitartabs.cc/tabs/b/beatles/maxwells_silver_hammer_btab_ver_3.html ]
G|---------------------------------|---------------------------------|
D|-2----------------------------2--|-2-4-2---0-2-0-------------------|
A|-----------------2---------------|-----------------4-5-4---2-4-2---|
E|---------------------------------|---------------------------------|



G|---------------------------------|---------------------------------|
D|---------------------------------|-2------------2-------2----------|
A|-0------------0--4------------4--|-----------------4-------4-------|
E|---------------------------------|---------------------------------|



G|---------------------------------|---------------------------------|
D|-2-------------------------------|---------------------------------|
A|-----------------2---------------|-0-------2-------4-------0-------|
E|---------------------------------|---------------------------------|



GUITAR SOLO


G|---------------------------------|---------------------------------|
D|-0-------------------------------|-0---------------0-------1-------|
A|-----------------0---------------|--------------4------------------|
E|---------------------------------|---------------------------------|



G|---------------------------------|---------------------------------|
D|-2-------------------------------|------9--11---9------------------|
A|-----------------2---------------|-9/11------------11\9-7--9----7--|
E|---------------------------------|---------------------------------|



G|-2------------2------------------|---------------------------------|
D|-----------------2------------2--|-------------------------2-------|
A|---------------------------------|-0---------------0----4----------|
E|---------------------------------|--------------0------------------|



G|---------------------------------|---------------------------------|
D|-2-------------------------------|-0---------------0---------------|
A|---------2-------0-------2-------|---------0-----------------------|
E|---------------------------------|---------------------------------|



G|---------------------------------|---------------------------------|
D|-0-------------------------------|---------------------------------|
A|-----------------4---------------|-2---------------0---------------|
E|---------------------------------|---------------------------------|



G|---------------------------------|---------------------------------|
D|---------------------------------|---------------------------------|
A|---------0-------2-------4-------|-5----7--4-------5-------0-------|
E|-3-------------------------------|---------------------------------|



VERSE


G|---------------------------------|---------------------------------|
D|-0-------------------------------|---------------------------------|
A|-----------------4---------------|-2-----------------------2-------|
E|---------------------------------|-----------------2---------------|



G|---------------------------------|---------------------------------|
D|-2-------------------------------|-2-------0-----------------------|
A|-----------------2------------2--|-----------------4-------2-------|
E|---------------------------------|---------------------------------|



G|---------------------------------|---------------------------------|
D|---------------------------------|-2-------------------------------|
A|-0---------------4---------------|--------------0--4-------0-------|
E|---------------------------------|---------------------------------|



G|---------------------------------|---------------------------------|
D|-0-------------------------------|---------------------------------|
A|-----------------4-------2-------|-0------------0--4-------0-------|
E|---------------------------------|---------------------------------|



G|---------------------------------|---------------------------------|
D|-0-------------------------------|---------------------------------|
A|-----------------4---------------|-2---------------2---------------|
E|---------------------------------|--------------2----------2-------|



G|---------------------------------|---------------------------------|
D|-2-------------------------------|-2-------0----------0------------|
A|-----------------2------------2--|-----------------4-----4--2------|
E|---------------------------------|---------------------------------|



G|---------------------------------|---------------------------------|
D|---------------------------------|-2------------2------------------|
A|-0---------------4------------4--|-----------------4-------0-------|
E|---------------------------------|---------------------------------|



G|---------------------------------|---------------------------------|
D|-0-------------------------------|-------------------------2-------|
A|-----------------4-------2-------|-0---------------0----4----------|
E|---------------------------------|---------------------------------|



PRE-CHORUS


G|---------------------------------|---------------------------------|
D|-2-------------------------------|-------------------------2--/-7--|
A|---------------------------------|---------------------------------|
E|---------------------------------|---------------------------------|



G|---------------------------------|---------------------------------|
D|-7-------------------------------|------9--7-------5---------------|
A|---------------------------------|-------------------------7-------|
E|---------------------------------|---------------------------------|



CHORUS


G|---------------------------------|---------------------------------|
D|-0-------------------------------|-0---------------0-------1-------|
A|-----------------0------------0--|--------------0------------------|
E|---------------------------------|---------------------------------|



G|---------------------------------|---------1-----------------------|
D|-2---------------2---------------|-2---------------4----2--4-------|
A|--------------2---------------2--|---------------------------------|
E|---------------------------------|---------------------------------|



G|-2------------2------------------|---------------------------------|
D|-----------------2------------2--|--------------2----------2-------|
A|---------------------------------|-0---------------0----4----------|
E|---------------------------------|---------------------------------|



G|---------------------------------|---------------------------------|
D|-2-------------------------------|---------------------------------|
A|-----------------2---------------|-0-------2-------4-------0-------|
E|---------------------------------|---------------------------------|



GUITAR SOLO


G|---------------------------------|---------------------------------|
D|-0-------------------------------|-0---------------0-------1-------|
A|-----------------0---------------|--------------0------------------|
E|---------------------------------|---------------------------------|



G|---------------------------------|---------------------------------|
D|-2----------------------------2--|------9--------------------------|
A|-----------------2---------------|-9/11----11------9-------9-------|
E|---------------------------------|---------------------------------|



G|---------------------------------|---------------------------------|
D|---------------------------------|-2-------------------------------|
A|-0---------------4---------------|-----------------4-------0-------|
E|---------------------------------|---------------------------------|



G|---------------------------------|---------------------------------|
D|-2-------------------------------|-0---------------0---------------|
A|---------4-------0-------2-------|---------0-----------------------|
E|---------------------------------|---------------------------------|



OUTRO


G|---------------------------------|---------------------------------|
D|-0-------------------------------|---------------------------------|
A|-----------------4---------------|-2---------------0---------------|
E|---------------------------------|---------------------------------|



G|---------------------------------|---------------------------------|
D|---------------------------------|---------------------------------|
A|---------0-------2-------4-------|-5----7--4-------5---------------|
E|-3-------------------------------|---------------------------------|
Comments