Beatles - Maxwells Silver Hammer Chords & Tabs

 

Maxwells Silver Hammer Chords & Tabs

Beatles Chords & Tabs

Version: 1 Type: Bass Tab 0 ratings
1 star 2 stars 3 stars 4 stars 5 stars
comments

Maxwells Silver Hammer Bass Tab

Title       : Maxwell's Silver Hammer
Artist      : The Beatles
Album       : Abbey Road
Tabbed By   : Ken Robertson
---------------------------------------------


G-------------------------------------------------|
D-------------2---2-------------------------------|
A---5-4-2---2---2---5-4-2---4-7-7-4-7-5-4-2---2-4-|
E---------2---------------5-----------------5-----|


G--------------------------------------------------------------|
D-------------2---2--------------------------------------------|
A---5-4-2---2---2---5-4-2---4-7-7-4-7-5-4-2------4-7-4-7--7/12-|
E---------2---------------5-----------------5--5---------------|


G--------------------------------------------------------------
D----------------------------6-9-6----------7-7----------------
A---4-2----5---5-4-5-6-7---7-------9-7-9-7------7-7------4---7-
E-------5----5-----------7--------------------------5--5---5---


G---------------------------------------------|
D-------------------------------------2-------|
A---7-4---4--5---5--5-4-2-------2-4-5---4-5---|
E-------7------5----------5-3-5-------------5-|


G-------------------------------------------------|
D-------------2---2-------------------------------|
A---5-4-2---2---2---5-4-2---4-7-7-4-7-5-4-2---2-4-|
E---------2---------------5-----------------5-----|


G--------------------------------------------------------------|
D-------------2---2--------------------------------------------|
A---5-4-2---2---2---5-4-2---4-7-7-4-7-5-4-2------4-7-4-7--7/12-|
E---------2---------------5-----------------5--5---------------|

[ Tab from: http://www.guitartabs.cc/tabs/b/beatles/maxwells_silver_hammer_btab.html ]
G---------------------------------------------------------------------------
D---------------------------------------------------------------------------
A---4-2----5---5-4-5-6-7---7--7-9-7--5-7-5--4-5-4-------------4-4-7-7-4-7-4-
E-------5----5-----------7-------------------------7-9-7--5-5---------------


G----------------------------------------6--------------------------------
D------------------------------------6-9---9-6----------------------------
A---7--4------4----5---5-4-5-6-7---7-----------9-7-9--------7-7-----4---7-
E---------5-7---5----5-----------7----------------------5-5-----5-5---5---


G--------------------------------------------|
D------------------------------------2-------|
A---7-4-----5---5--5-4-2-------2-4-5---4-5---|
E-------7-5---5----------5-3-5-------------5-|


G---------------------------------------------------|
D-------------2---2---------------------------------|
A---5-4-2---2---2---5-4-2---4-7-7-4---5-4-2---2-4---|
E---------2---------------5---------5-------5-----5-|


G----------------------------------------------------------------------|
D---------------2-----2------------------------------------------------|
A---5-4-2---2-----2-2---5-4-5-4-2---4-4-7-7-4---5-4-2------4-7-7--7/12-|
E---------2---2-------------------5-----------5-------5--5-------------|


G---------------------------------------------------------------------------
D-----7-5------------------------------6-----7-7----------------------------
A---7-----7--5-----5---5-6-7---7---7-7---9-7-----7-7-----4---7--7-------4---
E--------------5-5---5-------7---7-------------------5-5---5------7-5-7---5-


G--------------------------------------------------------------|
D-----------------------6-9-6----------------------------------|
A---5-----5---5-6-7---7-------9-9---4-7---4-7-4--7-4-----5---5-|
E-----5-5---5-------7-------------5-----5------------5-7---5---|


G---------------------------|
D---------------------2-----|
A---5-4-2-------2-4-5---4-5-|
E---------5-3-5-------------|
Comments