Beatles - Lucy In The Sky With Diamonds Chords & Tabs

 

Lucy In The Sky With Diamonds Chords & Tabs

Beatles Chords & Tabs

Version: 5 Type: Tab 0 ratings
1 star 2 stars 3 stars 4 stars 5 stars
comments

Lucy In The Sky With Diamonds Tab

   
 Intro: 3/4 time, key of D Major. All notes with a pitch of \"F\" or \"C\" are sharp 

     A                 A/G               A/F#              A/F              
E||------------0----|-------0---------|------------0----|------------------|
B||-----------------|-----------------|-----------------|-------3--2-------|
G||-------2---------|--0---------2----|-------2---------|-------------2----|
D||--2--------------|-----------------|--4--------------|--3---------------|
A||-----------------|-----------------|-----------------|------------------|
E||-----------------|-----------------|-----------------|------------------|

    Verse: 3/4 time, key of D Major. All notes with a pitch of \"F\" or \"C\" are sharp 
  

    A                 A/G               A/F#              A/F             
|------------------|-----------------|-----------------|-----------------|
|---2----2----2----|--2----0---------|--2----0---------|--2--0-----------|
|*-----------------|------------2----|------------2----|------------2----|
|*-----------------|-----------------|-----------------|-----------------|
|------------------|-----------------|-----------------|-----------------|
|------------------|-----------------|-----------------|-----------------|


  A                 A/G              A/F#              F             
-----------------|----------------|--0--------------|---------------|
--2----0---------|--2--------2----|-------3--2------|---------------|
----------2------|----------------|-----------------|--2------------|
-----------------|----------------|-----------------|---------------|
-----------------|----------------|-----------------|---------------|
-----------------|----------------|-----------------|---------------|


                 A                  A/G              A/F#            
--------------|------------0-----|----------------|-----------------|
--------------|--2----3-------2--|------0---------|--2----0---------|
--------------|------------------|-----------2----|----------2------|
--------------|------------------|----------------|-----------------|
--------------|------------------|----------------|-----------------|
--------------|------------------|----------------|-----------------|


  A/F               A                 A/G               A/F#          
-----------------|-----------------|--0--------------|---------------|
--2----0---------|--2----0---------|-------3--2------|---------------|
--------------2--|------------2----|-----------------|--2------------|
-----------------|-----------------|-----------------|---------------|
-----------------|-----------------|-----------------|---------------|
-----------------|-----------------|-----------------|---------------|



                                             Pre-Chorus: 3/4 time, Key of F Major. All notes 
                                                        with a pitch of \"B\" are flat

                 Dm             Dm/C           Bb              
--------------|--------------|--------------|-----------------|
--------------|--------------|--------------|--3--3----3------|
--------------|--------------|--------------|-----------------|
--------------|--------------|--------------|-----------------|
--------------|--------------|--------------|-----------------|
--------------|--------------|--------------|-----------------|


                    C                                 F               
-----------------|-----------------|---------------|-----------------|
--3----3----3----|--1--3------3----|--3------------|--3----3----3----|
-----------------|-----------------|---------------|-----------------|
-----------------|-----------------|---------------|-----------------|
-----------------|-----------------|---------------|-----------------|
-----------------|-----------------|---------------|-----------------|

[ Tab from: http://www.guitartabs.cc/tabs/b/beatles/lucy_in_the_sky_with_diamonds_tab_ver_5.html ]
                    Bb                               C                
-----------------|-----------------|--------------|------------------|
--3----3----3----|--3--1-----------|--------------|--3----3----3--3--|
-----------------|--------3--------|--------------|------------------|
-----------------|-----------------|--------------|------------------|
-----------------|-----------------|--------------|------------------|
-----------------|-----------------|--------------|------------------|


                   G                                   D                 
----------------|-----------------|-----------------|-------------------|
------3----3----|--3--3------3----|--3----1----0----|-------------------|
----------------|-----------------|-----------------|--2----------------|
----------------|-----------------|-----------------|-------------------|
----------------|-----------------|-----------------|-------------------|
----------------|-----------------|-----------------|-------------------|




  Chorus: 4/4 Time, Key of G Major. All notes with a pitch of \"F\" are sharp.

  G           C             D                      G           C           
--3--3--3--3--3--2----0--|----------------------|--3--3--3--3--3--2----0--|
-------------------------|--3--1-0--------------|-------------------------|
-------------------------|---------2------------|-------------------------|
-------------------------|----------------------|-------------------------|
-------------------------|----------------------|-------------------------|
-------------------------|----------------------|-------------------------|


  D                      G           C             D                    
----------------------|--3--3--3--3--3--2----0--|----------------------|
--3--1-0--------------|-------------------------|--3--1-0--------------|
---------2------------|-------------------------|---------2------------|
----------------------|-------------------------|----------------------|
----------------------|-------------------------|----------------------|
----------------------|-------------------------|----------------------|


      Go Back to Verse(First time only)
  D                     D                   A                 
--2-----------------||--2----------------|--0----------------|
--------------------||-------------------|-------------------|
-------------------*||-------------------|-------------------|
-------------------*||-------------------|-------------------|
--------------------||-------------------|-------------------|
--------------------||-------------------|-------------------|


  G           C             D                      G           C           
--3--3--3--3--3--2----0--|----------------------|--3--3--3--3--3--2----0--|
-------------------------|--3--1-0--------------|-------------------------|
-------------------------|---------2------------|-------------------------|
-------------------------|----------------------|-------------------------|
-------------------------|----------------------|-------------------------|
-------------------------|----------------------|-------------------------|


  D                      G           C             D                    
----------------------|--3--3--3--3--3--2----0--|----------------------|
--3--1-0--------------|-------------------------|--3--1-0--------------|
---------2------------|-------------------------|---------2------------|
----------------------|-------------------------|----------------------|
----------------------|-------------------------|----------------------|
----------------------|-------------------------|----------------------|


  D                   A                                                  
--2----------------|--0----------------|
-------------------|-------------------|
-------------------|-------------------|
-------------------|-------------------|
-------------------|-------------------|
-------------------|-------------------|
Comments