Beatles - Lucy In The Sky With Diamonds Chords & Tabs

 

Lucy In The Sky With Diamonds Chords & Tabs

Beatles Chords & Tabs

Version: 3 Type: Tab 0 ratings
1 star 2 stars 3 stars 4 stars 5 stars
comments

Lucy In The Sky With Diamonds Tab

This is the Intro - the real way - from the SGT.PEPPER'S LONELY HEARTS CLUB BAND book
[ Tab from: http://www.guitartabs.cc/tabs/b/beatles/lucy_in_the_sky_with_diamonds_tab_ver_3.html ]
e-------------12------12-----------12-----------10---9-----------
B---------10---------------10---------------------------10-------
G------9---------12------------11-------10---9-------------------
D----------------------------------------------------------------
A----------------------------------------------------------------
E----------------------------------------------------------------


e-------------12------12-----------12-----------10---9-----------
B---------10---------------10---------------------------10-------
G------9---------12------------11-------10---9-------------------
D----------------------------------------------------------------
A----------------------------------------------------------------
E----------------------------------------------------------------
Comments