Beatles - Lucy In The Sky With Diamonds Chords & Tabs

 

Lucy In The Sky With Diamonds Chords & Tabs

Beatles Chords & Tabs

Version: 1 Type: Tab 0 ratings
1 star 2 stars 3 stars 4 stars 5 stars
comments

Lucy In The Sky With Diamonds Tab

   
#----------------------------------PLEASE NOTE---------------------------------#
#This file is the author's own work and represents their interpretation of the #
#song. You may only use this file for private study, scholarship, or research. #
#------------------------------------------------------------------------------#
[ Tab from: http://www.guitartabs.cc/tabs/b/beatles/lucy_in_the_sky_with_diamonds_tab.html ]
LUCY IN THE SKY WITH DIAMONDS 
(Lennon/McCartney) 
Sgt. Pepper's Lonely Hearts Club Band (1967)  
 
 
 
  
     
 That cool riff that underlines John's section of the song is played on 
a keyboard instrument and is a little awkward to play on the guitar.   
If you're stuck on playing it on a guitar, I recommend capoing on the 
12th fret and playing the following (you could play this without the  
capo--the riff would just be an octave lower).  The chords that go a 
long the riff are simple enough--just an A chord with a bass line  
moving beneath it. 
 
 
let ring: 
 
       A/E         A/G         A/F#        A/F          
     |----------0-------0----------------0---------------| 
     |------------------------------------------3p2------| 
     |------2-------0------2---------2----------------2--| 
     |--2-----------------------4-----------3------------| 
     |---------------------------------------------------| 
     |---------------------------------------------------| 
 
 
       A/E         A/G         A/F#        A/F          
     |----------0-------0----------------0---------------| 
     |------------------------------------------3p2------| 
     |------2-------0------2---------2----------------2--| 
     |--2-----------------------4-----------3------------| 
     |---------------------------------------------------| 
     |---------------------------------------------------| 
       Picture yourself in  a  boat on  a  river 
 
       A/E         A/G         A/F#       Fmaj7 
     |----------0-------0---------------0----------------| 
     |--------------------------------------1------1-----| 
     |------2-------0-------2-------2-------2---2-----2--| 
     |--2-----------------------4-----------3---------3--| 
     |---------------------------------------------------| 
     |---------------------------------------------------| 
   With tangerine trees    and marmalade  skies 
 
       A/E         A/G         A/F#        A/F          
     |----------0-------0----------------0---------------| 
     |------------------------------------------3p2------| 
     |------2-------0------2---------2----------------2--| 
     |--2-----------------------4-----------3------------| 
     |---------------------------------------------------| 
     |---------------------------------------------------| 
       Somebody calls you, you answer quite slowly 

A/E         A/G        A/F#               Dm 
     |----------0-------0----------0-----0-----0-----1-----1--| 
     |--------------------------2-----2-----2-----3-----3-----| 
     |------2-------0-------2---------------------------------| 
     |--2-----------------------------------------------------| 
     |--------------------------------------------------------| 
     |--------------------------------------------------------| 
     A girl with caleidoscope eyes ...

[repeat and fade:] 
 
 G           C          D 
Lucy in the sky with diamonds  ahhhhh  X3 
 



----------------------------------------------------------------------- 
 
 
 A/E      A/G      A/F#     A/F 
 
 -0-      -0-      -0-      -0- 
 -2-      -2-      -2-      -2- 
 -2-      -2-      -2-      -2- 
 -2-      -2-      -2-      -2- 
 -0-      -x-      -x-      -x- 
 -0-      -3-      -2-      -1- 
 

Comments