Beatles - Lucy In The Sky With Diamonds Chords & Tabs

 

Beatles Chords & Tabs

Version: 4 Type: Bass Tab 0 ratings
1 star 2 stars 3 stars 4 stars 5 stars
comments

Lucy In The Sky With Diamonds Bass Tab

   
  ----------------------------------------------------------------

  THE BEATLES - LUCY IN THE SKY WITH DIAMONDS (Lennon & McCartney) 
                From SGT. PEPPER'S LONELY HEARTS CLUB BAND album. 
                Released 1st June 1967.

  ----------------------------------------------------------------

  Bass tab by:PJVillanueva






  Picture yourself in a boat on a river
  With tangerine trees and marmalade skies
  Somebody calls you, you answer quite slowly,
  A girl with kaleidoscope eyes.

  Cellophane flowers of yellow and green
  Towering over your head
  Look for the girl with the sun in her eyes
  And she's gone.

  REFRAIN
  Lucy in the sky with diamonds
  Lucy in the sky with diamonds
  Lucy in the sky with diamonds
  Ah... Ah...


  Follow her down to a bridge by a fountain
  Where rocking horse people eat marshmallow pies
  Everyone smiles as you drift past the flowers
  That grow so incredibly high.

  Newspaper taxis appear on the shore
  Waiting to take you away
  Climb in the back with your head in the clouds
  And you're gone.

  {REFRAIN}

  Picture yourself on a train in a station
  With plasticine porters with looking glass ties
  Suddenly someone is there at the turnstyle,
  The girl with kaleidoscope eyes.

  {REFRAIN}...




            INTRO

          G|------- ------- -------|------- ------- -------|
          D|-----------------------|-----------------------|
          A|-----------------------|-----------------------|
          E|-----------------------|-----------------------|


          G|------- ------- -------|------- ------- -------|
          D|-----------------------|-----------------------|
          A|-----------------------|-----------------------|
          E|-----------------------|-----------------------|

            00:06
  
          G|------- ------- -------|------- ------- -------|
          D|7----------------------|5----------------------|
          A|-----------------------|-----------------------|
          E|-----------------------|-----------------------|
            Picture         yourself        on      a 


          G|------- ------- -------|------- ------- -------|
          D|4----------------------|3----------------------|
          A|-----------------------|-----------------------|
          E|-----------------------|-----------------------|
            boat    on      a       river,          with


          G|------- ------- -------|------- ------- -------|
          D|-----------------------|5----------------------|
          A|7----------------------|-----------------------|
          E|-----------------------|-----------------------|
            tangerine               trees           and 


          G|------- ------- -------|------- ------- -------|
          D|4----------------------|3---------------3------|
          A|-----------------------|--------3--------------|
          E|-----------------------|-----------------------|
            marmalade               skies


          G|------- ------- -------|
          D|-----------------------|
          A|3---------------5------|
          E|-----------------------|

      
            00:18

          G|------- ------- -------|------- ------- -------|
          D|-----------------------|5----------------------|
          A|7----------------------|-----------------------|
          E|-----------------------|-----------------------|
            Somebody            calls       you,    you 


          G|------- ------- -------|------- ------- -------|
          D|4----------------------|3----------------------|
          A|-----------------------|-----------------------|
          E|-----------------------|-----------------------|
            answer      quite       slowly,             a


          G|------- ------- -------|------- ------- -------|
          D|-----------------------|5----------------------|
          A|7----------------------|-----------------------|
          E|-----------------------|-----------------------|
            girl    with    kaleidoscope 


          G|------- 2------ -------|2------ ------- 2------|
          D|4---------------4------|--------4--------------|
          A|-----------------------|-----------------------|
          E|-----------------------|-----------------------|
            eyes.


          G|------- ------- -------|------- ------- -------|
          D|-----------------------|-----------------------|
          A|5-------5-------5------|3-------3-------3------|
          E|-----------------------|-----------------------|


            00:32

          G|------- ------- -------|------- ------- -------|
          D|-----------------------|3-------3-------3------|
          A|1-------1-------1------|-----------------------|
          E|-----------------------|-----------------------|
            Cellophane              flowers         of 


          G|------- ------- -------|------- ------- -------|
          D|-----------------------|5-------5-------5------|
          A|3-------3-------3------|-----------------------|
          E|-----------------------|-----------------------|
            yellow          and     green,


          G|------- ------- -------|------- ------- -------|
          D|-----------------------|-----------------------|
          A|-----------------------|3-------3-------3------|
          E|1-------1-------1------|-----------------------|
            Towering                over            your 


          G|------- ------- -------|3------ ------- -------|
          D|--------0-------3------|--------3--------------|
          A|1----------------------|----------------1------|
          E|-----------------------|-----------------------|
            head


          G|------- ------- -------|------- ------- -------|
          D|-----------------------|-----------------------|
          A|3-------3-------3------|-----------------------|
          E|-----------------------|3-------3-------3------|
            Look    for     the girl        with    the 


          G|------- ------- -------|------- ------- -------|
          D|-----------------------|5-------4-------2------|
          A|--------2-------5------|-----------------------|
          E|3----------------------|-----------------------|
            sun     in      her eyes        and     she's


                    X       X       X
          G|------- ------- ------- -------|
          D|-------------------------------|
          A|5------------------------------|
          E|-------------------------------|
            gone


    00:50

  G|------- ------- ------- -------|------- ------- ------- -------|
  D|------------------------2------|-------------------------------|
  A|------------2---3---5-------5--|----5-5-5---5---5---5-5-5\-----|
  E|3---3---5----------------------|----------------------------2--|
    Lucy    in  the sky             diamonds
                                with


  G|------- ------- ------- -------|------- ------- ------- -------|
  D|------------------------2------|-------------------------------|
  A|------------2---3---5-------5--|----5-5-5---5-5-5---5-5-5\-----|
  E|3---3---5----------------------|----------------------------2--|
    Lucy    in  the sky             diamonds
                                with


  G|------- ------- ------- -------|------- ------- ------- -------|
  D|------------------------2------|-------------------------------|
  A|------------2---3---5-------5--|----5-5-5-----5-5---555-5-----5|
  E|3---3---5----------------------|-------------------------------|
    Lucy    in  the sky             diamonds
                                with


  G|------- ------- ------- -------|
  D|----7-------7-------7-------7\-|
  A|5-------5-------5-------5------|
  E|-------------------------------|
    Aaaaaaaaaaaaaaaaaaaaaaaaaaaaaaa


            01:08

          G|------- ------- -------|------- ------- -------|
          D|-----------------------|5----------------------|
          A|7----------------------|-----------------------|
          E|-----------------------|-----------------------|
            Follow          her     down            to  a 
            aaaaaaaaaaaaaaaaaaaahhhhhh


          G|------- ------- -------|------- ------- -------|
          D|4----------------------|3----------------------|
          A|-----------------------|-----------------------|
          E|-----------------------|-----------------------|
            bridge  by      a   fountain                where


          G|------- ------- -------|------- ------- -------|
          D|-----------------------|5----------------------|
          A|7----------------------|-----------------------|
          E|-----------------------|-----------------------|
            rocking     horse       people          eat 


          G|------- ------- -------|------- ------- -------|
          D|4----------------------|3---------------3------|
          A|-----------------------|--------3--------------|
          E|-----------------------|-----------------------|
            marshmallow             pies


          G|------- ------- -------|
          D|-----------------------|
          A|3---------------5------|
          E|-----------------------|


            01:20

          G|------- ------- -------|------- ------- -------|
          D|-----------------------|5----------------------|
          A|7----------------------|-----------------------|
          E|-----------------------|-----------------------|
            Everyone                smiles  as  you    


          G|------- ------- -------|------- ------- -------|
          D|4----------------------|3----------------------|
          A|-----------------------|-----------------------|
          E|-----------------------|-----------------------|
            drift   past    the flowers                 that


          G|------- ------- -------|------- ------- -------|
          D|-----------------------|5----------------------|
          A|7----------------------|-----------------------|
          E|-----------------------|-----------------------|
            grow    so      incredibly


          G|------- 2------ -------|2------ ------- 2------|
          D|4---------------4------|--------4--------------|
          A|-----------------------|-----------------------|
          E|-----------------------|-----------------------|
            high
        
[ Tab from: http://www.guitartabs.cc/tabs/b/beatles/lucy_in_the_sky_with_diamonds_btab_ver_4.html ]
          G|------- ------- -------|------- ------- -------|
          D|-----------------------|-----------------------|
          A|5-------5-------5------|3-------3-------3------|
          E|-----------------------|-----------------------|


            01:33

          G|------- ------- -------|3------ ------- -------|
          D|--------0-------3------|--------3--------------|
          A|1----------------------|----------------1------|
          E|-----------------------|-----------------------|
            Newspaper           taxis               appear 


          G|------- ------- -------|------- ------- -------|
          D|-----------------------|-----------------------|
          A|3-------3-------3------|3---1---0--------------|
          E|-----------------------|----------------3------|
                    on      the shore


          G|------- ------- -------|------- ------- -------|
          D|-----------------------|3----------------------|
          A|--------0-------3------|----------------3------|
          E|1----------------------|-----------------------|
            Waiting         to  take        you    away


          G|------- ------- -------|3------ ------- -------|
          D|--------0-------3------|--------3--------------|
          A|1----------------------|----------------1------|
          E|-----------------------|-----------------------|



          G|------- ------- -------|------- ------- -------|
          D|-----------------------|-----------------------|
          A|3-------3--------------|3-------2-------0------|
          E|----------------3------|-----------------------|
            Climb   in      the back        with  
                                                your

          G|------- ------- -------|------- ------- -------|
          D|-----------------------|-----------------------|
          A|-----------------------|--------2-------3------|
          E|3-------3-------3------|3----------------------|
            head            the clouds      and you're
                in

                    X       X       X
          G|------- ------- ------- -------|
          D|-------------------------------|
          A|5------------------------------|
          E|-------------------------------|
            gone


    01:50

  G|------- ------- ------- -------|------- ------- ------- -------|
  D|------------------------2------|-------------------------------|
  A|------------2---3---5-------5--|----5-5-5---5-5-5---5-5-5\-----|
  E|3---3---5----------------------|----------------------------2--|
    Lucy    in  the sky             diamonds
                                with


  G|------- ------- ------- -------|------- ------- ------- -------|
  D|------------------------2------|-------------------------------|
  A|------------2---3---5-------5--|----5-5-5---5-5-5-----5-5------|
  E|3---3---5----------------------|--------------------------2----|
    Lucy    in  the sky             diamonds
                                with


  G|------- ------- ------- -------|------- ------- ------- -------|
  D|------------------------2------|-------------------------------|
  A|------------2---3---5-------5--|----5-5-5-----5-5-----5-5------|
  E|3---3---5----------------------|----------------------------5--|
    Lucy    in  the sky             diamonds
                                with


  G|------- ------- ------- -------|
  D|-------------------------------|
  A|5-------5-------5-------5------|
  E|----5-------5-------5-------0--|
    Aaaaaaaaaaaaaaaaaaaaaaaaaaaaaaa



            02:08

          G|------- ------- -------|------- ------- -------|
          D|-----------------------|5----------------------|
          A|0----------------------|-----------------------|
          E|-----------------------|-----------------------|
            Picture         yourself        on      a 
            aaaaaaaaaaaaaaaaaaaahhhhhhh

          G|------- ------- -------|------- ------- -------|
          D|4----------------------|3----------------------|
          A|-----------------------|-----------------------|
          E|-----------------------|-----------------------|
            train   in  a           station             with


          G|------- ------- -------|------- ------- -------|
          D|----------------2------|5----------------------|
          A|0-------4--------------|-----------------------|
          E|-----------------------|-----------------------|
            plasticine              porters             with 


          G|------- ------- -------|------- ------- -------|
          D|4----------------------|3---------------3------|
          A|-----------------------|--------3--------------|
          E|-----------------------|-----------------------|
            looking     glass       ties


          G|------- ------- -------|
          D|----------------0------|
          A|3-----------3----------|
          E|-----------------------|


            02:20

          G|------- ------- -------|------- ------- -------|
          D|2---------------2------|5---------------5------|
          A|-----------------------|-----------------------|
          E|-----------------------|-----------------------|
            Suddenly                someone         is 


          G|------- ------- -------|------- ------- -------|
          D|4---------------4------|3---------------3------|
          A|-----------------------|-----------------------|
          E|-----------------------|-----------------------|
            there  at      the turnstyle,              the



          G|------- ----2-- -------|------- ------- -------|
          D|2---------------2------|5---------------5------|
          A|-----------------------|-----------------------|
          E|-----------------------|-----------------------|
            girl    with    kaleidoscope 


          G|------- ------- 2------|------- ----2-- -------|
          D|4----------------------|4---------------4------|
          A|-----------------------|-----------------------|
          E|-----------------------|-----------------------|
            eyes.


                    X       X       X
          G|------- ------- ------- -------|
          D|-------------------------------|
          A|5------------------------------|
          E|-------------------------------|



    02:33

  G|------- ------- ------- -------|------- ------- ------- -------|
  D|------------------------2------|-------------------------------|
  A|------------2---3---5-------5--|----5-5-5---5-5-5---5-5-5\-----|
  E|3---3---5----------------------|----------------------------2--|
    Lucy    in  the sky             diamonds
                                with


  G|------- ------- ------- -------|------- ------- ------- -------|
  D|------------------------2------|-------------------------------|
  A|------------2---3---5-------5--|----5-5-5---5-5-5---5-5-5\-----|
  E|3---3---5----------------------|----------------------------2--|
    Lucy    in  the sky             diamonds
                                with


  G|------- ------- ------- -------|------- ------- ------- -------|
  D|------------------------2------|-------------------------------|
  A|------------2---3---5-------5--|----5-5-5-----5-5---5-5-5------|
  E|3---3---5----------------------|----------------------------5--|
    Lucy    in  the sky             diamonds
                                with


  G|------- ------- ------- -------|------- ------- 2------ -------|
  D|----4---7---4-------4-------4--|--------2---------------2------|
  A|5---------------5-------5------|0---4-------4-------4-------0--|
  E|-------------------------------|-------------------------------|
    Aaaaaaaaaaaaaaaaaaaaaaaaaaaaaaaaaaaaaaaaaaaaaaaaaaaaaaaahhhhhhh


    02:53

  G|------- ------- ------- -------|------- ------- ------- -------|
  D|------------------------2------|-------------------------------|
  A|------------2---3---5-------5--|----5-5-5---5-5-5---5-5-5\-----|
  E|3---3---5----------------------|----------------------------2--|
    Lucy    in  the sky             diamonds
                                with


  G|------- ------- ------- -------|------- ------- ------- -------|
  D|------------------------2------|------------------7-------7----|
  A|------------2---3---5-------5--|--------5-----5-5-------5----5\|
  E|3---3---5----------------------|-------------------------------|
    Lucy    in  the sky             diamonds
                                with


  G|------- ------- ------- -------|------- ------- ------- -------|
  D|------------------------2------|-------------------------------|
  A|------------2---3---5-------5--|----5-5-5---5-5-5-----5-5------|
  E|3---3---5----------------------|----------------------------5--|
    Lucy    in  the sky             diamonds
                                with


  G|------- ------- ------- -------|------- ------- ------- -------|
  D|--------4---7-------4---7------|------------2------------------|
  A|5---5-----------5-----------5--|0---0---4-------0---0---0------|
  E|-------------------------------|----------------------------4--|
    Aaaaaaaaaaaaaaaaaaaaaaaaaaaaaaaaaaaaaaaaaaaaaaaaahhhhhhhhhhhhhh


    03:12

  G|------- ------- ------- -------|-------/1010101010\---- 101010\|
  D|------------------------2------|-------------------------------|
  A|------------2---3---5-------5--|----5--------------------------|
  E|3---3---5----------------------|--------------------10---------|
    Lucy    in  the sky             diamonds
                                with
    ......................... Fade out .............................


  G|------- ------- ------- -------|--/1010 10---10 ---10-- ----10\|
  D|------------------------2------|-------------------------------|
  A|------------2---3---5-------5--|5------------------------------|
  E|3---3---5----------------------|-----------10----10-----10-----|
    Lucy    in  the sky             diamonds
                                with
    ...............................................................


  G|------- ------- ------- -------|------- ------- ------- -------|
  D|------------------------2------|-------------------------------|
  A|------------2---3---5-------5--|-------------------------------|
  E|3---3---5----------------------|-------------------------------|
    Lucy    in  the sky             diamonds
                                with
    ..............................








        B  Bend
        R  Release
        /  slide up
        \  slide down
        H  hammer-on
        P  pull-off
        ~  vibrato
        +  harmonic
        x  Mute note
        . - play note like a dot in standard notation
        ^ - ties two notes together
        (.  Pause


Comments