Beatles - Lucy In The Sky With Diamonds Chords & Tabs

 

Lucy In The Sky With Diamonds Chords & Tabs

Beatles Chords & Tabs

Version: 3 Type: Bass Tab 0 ratings
1 star 2 stars 3 stars 4 stars 5 stars
comments

Lucy In The Sky With Diamonds Bass Tab

   
Song: Lucy In The Sky With Diamonds
Artist: Beatles
Tabbed For: Bass
Bassist: McCarthy
Tabber: Rippleseeker
Notes: The time signature changes during the song.


Intro (6/8):
(All in dotted quarters)
G---------------|
D-2-5-4-3-2-5-4-|
A---------------|
E---------------|

Main 1 (6/8):
-=eighth note
G----------------------------------|
D-3---3----------------------------|
A---3---3--5-2---5---4---3---2---5-|
E----------------------------------|

G---2---2---2-------------------------------------|
D-4---4---4---------------------3-3-3-------5-5-5-|
A-------------5-5-5-3-3-3-1-1-1-------3-3-3-------|
E-------------------------------------------------|
[ Tab from: http://www.guitartabs.cc/tabs/b/beatles/lucy_in_the_sky_with_diamonds_btab_ver_3.html ]
G-------------------3-----------------------------|
D-----------------3---3---------------------5-4-2-|
A-------3-3-3-1-5-------1-3-3-3---------2-5-------|
E-1-1-1-------------------------3-3-3-3-----------|

Main 2 (4/4):
-=eighth
R=Rest
G--------------------------------------------|
D---------------------2----------------------|
A-5-------------2-3-5---5-R-55-5-55-5-55-5---|
E---------3-3-5----------------------------2-|

G------------------------------------|
D-------------2----------------------|
A-------2-3-5---5-R-55-5-55-5-55-5---|
E-3-3-5----------------------------2-|

G--------------------------------------2---2---2---2-|
D-------------2--------------------------------------|
A-------2-3-5---5-R-55-5-55-5-55-5---5---5---5---5---|
E-3-3-5----------------------------2-----------------|

The order of the song goes:
Intro
Main 1
Main 2
Intro
Main 1
Main 2
Comments