Beatles - Lucille Chords & Tabs

 

Lucille Chords & Tabs

Beatles Chords & Tabs

Version: 2 Type: Bass Tab 0 ratings
1 star 2 stars 3 stars 4 stars 5 stars
comments

Lucille Bass Tab

LUCILLE

Written by Albert Collins & Richard Penniman
From The Beatles Live At The BBC album

Saturday Club #6 (Oct. 5, 1963)

INTRO
  t=148
G|---------------------------------|---------------------------------|
D|-----------------5---5---7---5---|-----------------5---5---7---5---|
A|-3---3---7---7-------------------|-3---3---7---7-------------------|
E|---------------------------------|---------------------------------|

G|---------------------------------|---------------------------------|
D|-----------------5---5---7---5---|-----5---5---5---5---5---5---5---|
A|-3---3---7---7-------------------|---------------------------------|
E|---------------------------------|---------------------------------|

VERSE

G|---------------------------------|---------------------------------|
D|-----------------5---5---7---5---|-----------------5---5---7---5---|
A|-3---3---7---7-------------------|-3---3---7---7-------------------|
E|---------------------------------|---------------------------------|

G|---------------------------------|---------------------------------|
D|-----------------5---5---7---5---|-----------------5---5---7---5---|
A|-3---3---7---7-------------------|-3---3---7---7-------------------|
E|---------------------------------|---------------------------------|

G|---------------------------------|---------------------------------|
D|---------------------------------|---------------------------------|
A|-----------------3---3---5---3---|-----------------3---3---5---3---|
E|-1---1---5---5-------------------|-1---1---5---5-------------------|

G|---------------------------------|---------------------------------|
D|-----------------5---5---7---5---|-----------------5---5---7---5---|
A|-3---3---7---7-------------------|-3---3---7---7-------------------|
E|---------------------------------|---------------------------------|

G|---------------------------------|---------------------------------|
D|---------------------------------|---------------------------------|
A|-----------------5---5---7---5---|-----------------3---3---5---3---|
E|-3---3---7---7-------------------|-1---1---5---5-------------------|

G|---------------------------------|---------------------------------|
D|-----------------5---5---7---5---|-----5---5---5---5---5---5---5---|
A|-3---3---7---7-------------------|---------------------------------|
E|---------------------------------|---------------------------------|

VERSE

G|---------------------------------|---------------------------------|
D|-----------------5---5---7---5---|-----------------5---5---7---5---|
A|-3---3---7---7-------------------|-3---3---7---7-------------------|
E|---------------------------------|---------------------------------|

G|---------------------------------|---------------------------------|
D|-----------------5---5---7---5---|-----------------5---5---7---5---|
A|-3---3---7---7-------------------|-3---3---7---7-------------------|
E|---------------------------------|---------------------------------|

G|---------------------------------|---------------------------------|
D|---------------------------------|---------------------------------|
A|-----------------3---3---5---3---|-----------------3---3---5---3---|
E|-1---1---5---5-------------------|-1---1---5---5-------------------|

G|---------------------------------|---------------------------------|
D|-----------------5---5---7---5---|-----------------5---5---7---5---|
A|-3---3---7---7-------------------|-3---3---7---7-------------------|
E|---------------------------------|---------------------------------|

G|---------------------------------|---------------------------------|
D|---------------------------------|---------------------------------|
A|-----------------5---5---7---5---|-----------------3---3---5---3---|
E|-3---3---7---7-------------------|-1---1---5---5-------------------|

G|---------------------------------|---------------------------------|
D|-----------------5---5---7---5---|-----5---5---5---5---5---5---5---|
A|-3---3---7---7-------------------|---------------------------------|
E|---------------------------------|---------------------------------|

BRIDGE

G|---------------------------------|---------------------------------|
D|---------------------------------|---------------------------------|
A|-3-------------------------------|-3-------------------------------|
E|---------------------------------|---------------------------------|
[ Tab from: http://www.guitartabs.cc/tabs/b/beatles/lucille_btab_ver_2.html ]
G|---------------------------------|---------------------------------|
D|---------------------------------|---------------------------------|
A|-3-------------------------------|-3-------1-------0---------------|
E|---------------------------------|-------------------------3-------|

VERSE

G|---------------------------------|---------------------------------|
D|---------------------------------|---------------------------------|
A|-----------------3---3---5---3---|-----------------3---3---5---3---|
E|-1---1---5---5-------------------|-1---1---5---5-------------------|

G|---------------------------------|---------------------------------|
D|-----------------5---5---7---5---|-----------------5---5---7---5---|
A|-3---3---7---7-------------------|-3---3---7---7-------------------|
E|---------------------------------|---------------------------------|

G|---------------------------------|---------------------------------|
D|---------------------------------|---------------------------------|
A|-----------------5---5---7---5---|-----------------3---3---5---3---|
E|-3---3---7---7-------------------|-1---1---5---5-------------------|

G|---------------------------------|---------------------------------|
D|-----------------5---5---7---5---|-----5---5---5---5---5---5---5---|
A|-3---3---7---7-------------------|---------------------------------|
E|---------------------------------|---------------------------------|

GUITAR SOLO

G|---------------------------------|---------------------------------|
D|-----------------5---5---7---5---|-----------------5---5---7---5---|
A|-3---3---7---7-------------------|-3---3---7---7-------------------|
E|---------------------------------|---------------------------------|

G|---------------------------------|---------------------------------|
D|-----------------5---5---7---5---|-----------------5---5---7---5---|
A|-3---3---7---7-------------------|-3---3---7---7-------------------|
E|---------------------------------|---------------------------------|

G|---------------------------------|---------------------------------|
D|---------------------------------|---------------------------------|
A|-----------------3---3---5---3---|-----------------3---3---5---3---|
E|-1---1---5---5-------------------|-1---1---5---5-------------------|

G|---------------------------------|---------------------------------|
D|-----------------5---5---7---5---|-----------------5---5---7---5---|
A|-3---3---7---7-------------------|-3---3---7---7-------------------|
E|---------------------------------|---------------------------------|

G|---------------------------------|---------------------------------|
D|---------------------------------|---------------------------------|
A|-----------------5---5---7---5---|-----------------3---3---5---3---|
E|-3---3---7---7-------------------|-1---1---5---5-------------------|

G|---------------------------------|---------------------------------|
D|-----------------5---5---7---5---|-----5---5---5---5---5---5---5---|
A|-3---3---7---7-------------------|---------------------------------|
E|---------------------------------|---------------------------------|

VERSE

G|---------------------------------|---------------------------------|
D|-----------------5---5---7---5---|-----------------5---5---7---5---|
A|-3---3---7---7-------------------|-3---3---7---7-------------------|
E|---------------------------------|---------------------------------|

G|---------------------------------|---------------------------------|
D|-----------------5---5---7---5---|---------------------------------|
A|-3---3---7---7-------------------|-3---3---3---3---3---3---3---3---|
E|---------------------------------|---------------------------------|

G|---------------------------------|---------------------------------|
D|-3---3---------------------------|-3---3---------------------------|
A|-----------------3---3---5---3---|-----------------3---3---5---3---|
E|---------5---5-------------------|---------5---5-------------------|

G|---------------------------------|---------------------------------|
D|-----------------5---5---7---5---|-----------------5---5---7---5---|
A|-3---3---7---7-------------------|-3---3---7---7-------------------|
E|---------------------------------|---------------------------------|

G|---------------------------------|---------------------------------|
D|---------------------------------|---------------------------------|
A|-----------------5---5---7---5---|-----------------3---3---5---3---|
E|-3---3---7---7-------------------|-1---1---5---5-------------------|

G|---------------------------------|---------------------------------|
D|-----------------5---5---5---5---|-5---3---------------------------|
A|-3---3---7---7-------------------|---------5---3-----------3-------|
E|---------------------------------|---------------------------------|
Comments