Beatles - Love Me Do Chords & Tabs

 

Love Me Do Chords & Tabs

Beatles Chords & Tabs

Version: 3 Type: Tab 0 ratings
1 star 2 stars 3 stars 4 stars 5 stars
comments

Love Me Do Tab

Band Name: The Beatles
Song Name: Love me do
Tabbed By: Terry Sims (Masterofdarknes)
Email: Floyd_Fan@teenspot.com

Love me do - Intro

|--6----5----3-----------------6--6--6--5--5--5--3-------------------|
|--------------------------------------------------------------------|
|--------------5---5---5--5--5---------------------5--5---5-5-5------|
|--------------------------------------------------------------------|
|--------------------------------------------------------------------|
|--------------------------------------------------------------------|
[ Tab from: http://www.guitartabs.cc/tabs/b/beatles/love_me_do_tab_ver_3.html ]
|--6----5----3-----------6--3---------------------------------3-------|
|-----------------------------5-----------------------------6---5-3---|
|--------------5---5---5---------5----5----5----5----5----5---------5-|
|---------------------------------------------------------------------|
|---------------------------------------------------------------------|
|---------------------------------------------------------------------|

Rhythm guitar part on the intro

|-----3---------3---------3-3----3-3-3-------------------------------|
|-----0---------0---------1-1----1-1-1-------------------------------|
|-----0---------0---------0-0----0-0-0-------------------------------|
|-----0----0----0----2----2-2----2-2-2---Repeat----------------------|
|--2--2--------------------------------------------------------------|
|--------------------------------------------------------------------|

|-------3---------3--------3-3----3-3-3--3---------------------------|
|-------1---------1--------1-1----1-1-1--1---------------------------|
|-------0---------0--------0-0----0-0-0--0---------------------------|
|--2----2----2----2----2---2-2----2-2-2--2---------------------------|
|--------------------------------------------------------------------|
|--------------------------------------------------------------------|

End, Any comments or crit then please email or pm me.
Thanks...
Comments