Beatles - Let It Be Chords & Tabs

 

Let It Be Chords & Tabs

Beatles Chords & Tabs

Version: 3 Type: Tab 0 ratings
1 star 2 stars 3 stars 4 stars 5 stars
comments

Let It Be Tab

#----------------------------------PLEASE NOTE---------------------------------#
#This file is the author's own work and represents their interpretation of the #
#song. You may only use this file for private study, scholarship, or research. #
#------------------------------------------------------------------------------##
Let It Be --- Beatles
Tabbeb by: Øystein Hegvik



# h  hammer on    | p  pull off       | b  bend string up
# r  release bend | /  slide up       | \  slide down
# v  vibrato      | t  right hand tap | x  play 'note' with heavy damping
# S  slap         | P  pop            |  harmonic
#


I have found some of this in the other tabs for this song,
and some of itj i have tab'ed myself. The complete thing:


This is played on piano but sounds good on guitar:

   INTRO

E |-0---0-----------|---------0-------|-0-----0------------------|-1----0-------------------|
B |-1---1---3---3---|-1---1---1---3---|-1-----1------3-----3-----|---------3--1-------------|
G |-0---2---0---0---|-2---2---2---2---|-0-----0------0-----0-----|-2----0---------------0-0-|
D |---------0---0---|-2---2-------3---|--------------0-----0-----|---------3--2-------------|
A |---3---3---------|---0---0---------|----3-----3---------------|---------------3--3-------|
E |-----------3---3-|-----------1---1-|------------2-3--3-----3--|--------------------------|

              VERSE

  find myself
|----------------------------|-0--0-0--------------------|-0--0--0-1-0-0---------0----|
|---------------------1-3----|-1---------3--3--1-1-------|-1----------------3------3--|
|*0--0--0-2---0----0---------|---------------------------|-0-------------------0------|
|*----------2----------------|---------------------------|----------------------------|
|-3--------------------------|-0------0------------------|-3--------------------------|
|---------------3---------3--|-----------3--1------1--3--|---------------3------------|



|-----------------------0--|----------------0--0------||
|-3--1-------------1-------|-3-1------------1----3-1--||
|-------0--0---------0----*|-------0--0---------------||
|-------2--0-----2---2----*|-------2--0---------------||
|-------------3------------|-------------3-----2------||
|-1------------------------|-1------------------------||

              CHORUS

|--------0-3-3/5-0--0--0-0------|------------0---------------|
|------1-------------------3-1--|----3-------------1--1-1-1--|
|*---2--------------------------|-------2p0--------0--0-0-0--|
|*------------------------------|----------------------------|
|-0--------------3--------------|---------------3------------|
|-------------------------------|-1--------------------------|

|-0--0--0h1--0-0---------0-----|----------------0--0------|
|-1-----------------3------3-3-|-3-1-----------------3-1--|
|-0--------------------0-------|-------0--0--------------*|
|------------------------------|-------2--0--------------*|
|-3----------------------------|-------------3-----2------|
|----------------3-------------|-1------------------------|

[ Tab from: http://www.guitartabs.cc/tabs/b/beatles/let_it_be_tab_ver_3.html ]
|---------------------------|-1--0-----------|------------------------|
|-3-1-------------1--1-1-1--|------3-1-------|-----------1-------1----|
|------2-0--0-----0--0-0-0--|-2--0------3-2--|-0---------0------------|
|--------2--0---------------|------3-2--0----|------3----2------------|
|--------------3------------|-------------3--|-2----0----3--3---------|
|-1-------------------------|----------------|-----------3--3--3---3--|

|-------1---------------------|-3--1--0----|
|-----1---------------1-------|-0--1--1----|
|---2-----0--0------0---------|-0--2--0----|
|-3-------2--0----------3--3--|-0--3--2----|
|---------------3-2-----1--0--|-2--3--3----|
|-----------------------------|-3--1--3----|


This is all guitar "sounds" in the song:
(1)

E|-----------------------------------------8--------5-----------------------|
B|-------------------------------------------------5-5----------------------|
G|---------------------------5-7b-7br-5-7/9-9-7-5-7---7-5-------------------|
D|5h7-5----------5-5-5~~~5-7-----------------------------7-5-7-5------------|
A|-----7-5-3~~~-7---7-------------------------------------------7-5-3-5-3~~~|
E|--------------------------------------------------------------------------|


E|-------------------------------8-10b-10br-8-10-8-15br-12----------------|
B|------------8---8---8-10~~~8-10-------------------------15-13-15-13-15br|
G|---5-5-5-7/9-7/9-7/9----------------------------------------------------|
D|5/7---7-----------------------------------------------------------------|
A|------------------------------------------------------------------------|
E|------------------------------------------------------------------------|


E|------------|
B|13-15-13~~~-|
G|------------|
D|------------|
A|------------|
E|------------|

(2)

E|----------------|
B|----------------|
G|----------------|
D|--7-5-----------|
A|------7-5---5---|
E|----------8---8-|


(3)

E|-------------------------------------------------------------------|
B|-------------------------------------------------------------------|
G|----------------------------------------------7b-7-5-7-5------5-5--|
D|----7/10-7--10------------10------------------------------5-7------|
A|-10-------------7\5-7-----10--7-5---5---5--------------------------|
E|----------------------------------8---8---8------------------------|

E|------------------------5-------------------8br-5----5-------------|
B|-----------------------------------5-8-8-8---------8----8-5--------|
G|------5---5---5---5--7b---7br-5-7---------------------------7------|
D|--5-7---7---7---7--------------------------------------------------|
A|-------------------------------------------------------------------|
E|-------------------------------------------------------------------|

E|-------------------------------------------------------------------|
B|---5---------------------------------------------------------------|
G|-5---5-----5-5-----------------------------------------------------|
D|-------5h7---------------------------------------------------------|
A|-------------------------------------------------------------------|
E|-------------------------------------------------------------------|


E-mail: oysteinsnart20@hotmail.com
Comments