Beatles - Let It Be Chords & Tabs

 

Let It Be Chords & Tabs

Beatles Chords & Tabs

Version: 2 Type: Chords 0 ratings
1 star 2 stars 3 stars 4 stars 5 stars
comments

Let It Be Chords

   
                         -------------------------
                           Let it be by beatles
                         -------------------------


   TAB*1:    |-------------------------------------------------------------|
             |-------------------------------------------------------------|
             |-------------------------------------------------------------|
             |-------------------------------------------------------------|
             |------3--------2----0----------------------------------------|
             |-------------------------------------------------------------|



    TAB*2:   |---------------------------------------------2------0------3-|
             |---------------------------------------------3------1------0-|
             |---------------------------------------------2------0------0-|
             |---------------------------------------------0------2------0-|
             |----3--------2----0--------------------------0------3------2-|
             |------------------------3--------1----0------0------0------3-|






           itro: G  D  Em  C  G  D  C  (Tab*1)  G
[ Tab from: http://www.guitartabs.cc/tabs/b/beatles/let_it_be_crd_ver_2.html ]
          G                     D                Em          C
          When I find myself in times of trouble mother Mary comes to me
          G                 D              C   (Tab*1)
          Speaking words of wisdom, let it be,
          G                 D               Em                C
          And in my hour of darkness she is standing right in front of me
          G                 D              C   (Tab*1)
          Speaking words of wisdom, let it be,

                 Em         D          C          G         
          Let it be, Let it be, Let it be, Let it be
                          D             C     (Tab*1)
          Wisper words of wisdom, let it be


          And when the broken hearted people living in the world agree
          There will be an answer, let it be
          For though they may be parted there is still a chance that they will see
          There will be an answer, let it be

          Let it be, Let it be, Let it be, Let it be
          Ther will be an answer, let it be

          Let it be, Let it be, Let it be, Let it be
          Wisper words of wisdom, let it be

          (Tab*2)
          Solo:(vers)

          Let it be, Let it be, Let it be, Let it be
          Wisper words of wisdom, let it be

          And when the night is cloudy, there is still a light that shines on me
          Shine until tomorrow, let it be
          I wake up to the sound of music mother Mary comes to me
          Speaking words of wisdom, let it be

          Let it be, Let it be, Let it be, Let it be
          There will be an answer, let it be

          Let it be, Let it be, Let it be, Let it be
          Wispr words of wisdom, let it be
Comments