Beatles - Lady Madonna Chords & Tabs

 

Lady Madonna Chords & Tabs

Beatles Chords & Tabs

Version: 2 Type: Tab 0 ratings
1 star 2 stars 3 stars 4 stars 5 stars
comments

Lady Madonna Tab

   
ARTIST: Beatles
SONG:   Lady Madonna
TABBER: Matt B.
INTRO
E
B  1-2-1---------1-2-1-0---1-2-1-0----------
G  2-2-2-4-2-2-2-2-2-2-2-2-2-2-2-2-2-2-2-0-2
D  ------0-0-0-0---------0---------0-2-3-0-2
A  -----------------------------------------
E  -----------------------------------------

Verse
E  -------------------------0---2-0----------|----------------------0---2-0----
B  2-2-1-0---2-2-0------2-2---2-----1-----1-1|2-1-0---2-2-0-----2-2---2-----2-2
G  2-------2-2-------2--2-------------2-2---2|2-----2-2-------2-2-------------3
D  2---------2-----4-0--2---------------3---2|2-------2-----4-0-2--------------
A  ------------------------------------------|---------------------------------
E  ------------------------------------------|---------------------------------
[ Tab from: http://www.guitartabs.cc/tabs/b/beatles/lady_madonna_tab_ver_2.html ]
E  ------------------------------------------0---------------------------------
B  ---1----3-1-3-1-3-1-3-1-3---1-1-1----1-1-3---1-----3-3-3-1-3-3-3-1-3-0------
G  -2---2--2---------------0---0-----2------------2---2---------------0---2-0--
D  -----2---------------------------------------------0---------------0--------
A  ----------------------------------------------------------------------------
E  ----------------------------------------------------------------------------
                       Outro
E  -0--------0--0----|---------------------------------------------------------
B  -1--3--0--3--3----|--2----3----3----2---------------------------------------
G  -0--4-----2--1----|--2----2----2----2---------------------------------------
D  ----4-------------|--2----4----2----2------------0-0-0---1---0--------------
A  ------------------|----------------------4-4-4-0-2-2---2---0---4------------
E  ------------------|----------------------5-5-------------------5------------

Hope this was helpful!!!
Matt B.
Comments