Beatles - Ive Just Seen A Face Chords & Tabs


Ive Just Seen A Face Chords & Tabs

Beatles Chords & Tabs

Version: 1 Type: Tab 0 ratings
1 star 2 stars 3 stars 4 stars 5 stars

Ive Just Seen A Face Tab

#----------------------------------PLEASE NOTE---------------------------------#
#This file is the author's own work and represents their interpretation of the #
#song. You may only use this file for private study, scholarship, or research. #
Tabber: Marc
I've Just Seen A Face 
[First verse: 
 G                                                                    Em 
I've just seen a face I can't for get the time or place where we just met 
   D                C                    G   C           G 
Falling yes I am falling and she keeps calling me back again .../]
[ Tab from: ]
Guitar solo played to verse chords. 
Repeat chorus. 
Repeat first verse. 
Repeat chorus 3 times to end. 
Intro, guitar #1 part is on 1st & 3rd strings, guitar #2 part on  
4th, 5th, and 6th strings: 
E --------2---2---2---5---5---5----9----9----9----14----14----14- 
B --------------------------------------------------------------- 
G ------2---2---2---6---6---6---11---11---11---14----14----14---- 
D ----------------------------------------------4--------2------- 
A --------------------------------------------------------------- 
E --5-4-2-------------------------------------------------------- 
E -----10----10----10----12----12----12----14----14----14----14----14----14- 
B -------------------------------------------------------------------------- 
G --11----11----11----12----12----12----14----14----14----14----14----14---- 
D -------------------------------------------------------------------------- 
A ---5-----------------------------------------------------5--------4------- 
E -------------------------------------------------------------------------- 
E -----13----13----13----11----11----11----------------------  
B ----------------------------------------------------------- 
G --12----12----12----10----10----10------------------------- 
D ----------------------------------------------------------- 
A ---2------------------------------------------------------- 
E ---------------------5--------4-------5-------------------- 
Note: Play with capo on 2nd fret, bringing song up to the key of A.