Beatles - In My Life Chords & Tabs

 

In My Life Chords & Tabs

Beatles Chords & Tabs

Version: 5 Type: Tab 0 ratings
1 star 2 stars 3 stars 4 stars 5 stars
comments

In My Life Tab

   
--------------------------------------------------------------------

 THE BEATLES - IN MY LIFE (Lennon/McCartney) From RUBBER SOUL album.
               Released on 3rd December 1965. 

--------------------------------------------------------------------

  Tabbed by:PJVillanueva







  I have included the great piano solo by George Martin. I think it is
  not too difficult to master and can be played as two different guitar
  parts (treble and bass). It may be a little help explaining the last
  measure of the solo, in which the third beat contains an 8th note  
  along with a sextet of 32nd notes that run into the last note on the 
  fourth beat of the measure. 
  It's really fast and it was recorded at half speed and speeded up
  later giving it more precission and that fine harpsichord tone, but
  I think that it can be played using a chain of five pull offs with 
  just two hammer ons. 







There are places I'll remember
All my life though some have changed
Some forever not for better
Some have gone and some remain
All these places have their moments
With lovers and friends I still can recall
Some are dead and some are living
In my life I've loved them all

But of all these friends and lovers
There is no one compares with you
And these memories lose their meaning
When I think of love as something new
Though I know I'll never lose affection
For people and things that went before
I know I'll often stop and think about them
In my life I love you more

Though I know I'll never lose affection
For people and things that went before
I know I'll often stop and think about them
In my life I love you more
In my life I love you more


 




  4/4 

  A5                             E5
e|-------- -------- -------- --------|-------- -------- -------- --------|
B|-----------------------------------|-----------------------------------|
G|2--------2--------2----------------|-----------------------------------|
D|2--------2--------2------------2---|---------2--------2--------2---2---|
A|0--------0--------0------------2---|---------2--------2--------2---2---|
E|-------------------------------0---|---------0--------0--------0---0---|

e|-------- 5------- -------- 0---4---|-------- -------- -------- --------|
B|2-----------------2-H-3------------|-----------------------------------|
G|-----------------------------------|-----------------------------------|
D|-----------------------------------|-----------------------------------|
A|-----------------------------------|-----------------------------------|
E|-----------------------------------|-----------------------------------|




  A5                             E5
e|-------- -------- -------- --------|-------- -------- -------- --------|
B|-----------------------------------|-----------------------------------|
G|2--------2--------2----------------|-----------------------------------|
D|2--------2--------2------------2---|---------2--------2--------2-------|
A|0--------0--------0------------2---|---------2--------2--------2-------|
E|-------------------------------0---|---------0--------0--------0-------|
                                                                 There are 
e|-------- 5------- -------- 0---4---|-------- -------- -------- --------|
B|2-----------------2-H-3------------|-----------------------------------|
G|-----------------------------------|-----------------------------------|
D|-----------------------------------|-----------------------------------|
A|-----------------------------------|-----------------------------------|
E|-----------------------------------|-----------------------------------|




  A                 E                 F#m                   A7
e|-------- -------- -------- --------|2------- -------- ----0--- 0-------| 
B|-------------2---------------------|2---------------------2----2-------|
G|---------2-------------------------|2---------------------0----0-------|
D|-------2----------2--------2-------|4---------------------2----2-------|
A|0---0-------------2--------2-------|4---------------------0----0-------|
E|------------------0--------0-------|2----------------------------------|
  places            I'll     remember                            all my


 
  D                 Dm                A
e|-------- 2------- -------- 1-------|-------- -------- -------- --------|
B|-------3-----3-----------3---------|-------------2---------------------|
G|----2----------------2-------------|---------2------------2--------2---|
D|0-----------------0----------------|-------2---------------------------|
A|-----------------------------------|0---0------------------------------|
E|-----------------------------------|-----------------------------------|
  life                          though some have   changed       Some fo..




                    E                 F#m          A7
e|-------- -------- -------- --------|-------- -------- -------- --------|
B|---------2-----------------0-------|2----------------------------------|
G|-------2-----2-----------1---------|2----------------------------------|
D|----2-----------------2------------|4----------------------------------|
A|0----------------------------------|4------------0-------------0-------|
E|------------------0----------------|2-----------------3----------------|
  rever             not      for      better                     Some have 



  D                 D(m)              A
e|-------- -------- -------- --------|-------- -------- -------- --------|
B|---------3-----------------3-------|---------2------------2------------|
G|-------2-----2-----------2-----2---|---------2------------2------------|
D|0---0-------------0---0------------|---------2------------2------------|
A|-----------------------------------|0----------------------------------|
E|-----------------------------------|-----------------------------------|
  gone                           and  some     remain            All these



  F#m                                 D
e|2------- -------- -------- --------|2------- ----2--- 2------- 2-------|
B|2----------------------------------|3------------3----3--------3-------|
G|2----------------------------------|2------------2----2--------2-------|
D|4----------------------------------|0------------0----0--------0-------|
A|4----------------------------------|0------------0----0--------0-------|
E|2----------------------------------|-----------------------------------|
  places             have    their    moments



  G                                   A
e|3------- 3---3--- 3---3--- 3-------|5---5--- ----5--- -------- 5-------|
B|3--------3---3----3---3----3-------|5---5--------5-------------5-------|
G|4--------4---4----4---4----4-------|6---6--------6-------------6-------|
D|5--------5---5----5---5----5-------|7---7--------7-------------7-------|
A|5--------5---5----5---5----5-------|7---7--------7-------------7-------|
E|3--------3---3----3---3----3-------|5---5--------5-------------5-------|
  lovers and  friends            I    still can recall           Some are



  F#m                                 B5
e|-------- -------- -------- --------|-------- -------- -------- --------|
B|-----------------------------------|-----------------------------------|
G|2----------------------------------|4------------4----4--------4-------|
D|4----------------------------------|4------------4----4--------4-------|
A|4----------------------------------|2------------2----2--------2-------|
E|2----------------------------------|-----------------------------------|
  dead     and      some     are      living                         In



  D                 D(m)              A
e|-------- -------- -------- --------|-------- ----0--- -------- --------|
B|---------3-----------------3-------|---------2-------------------------|
G|-------2-----2-----------2-----2---|-------2---------------------------|
D|0---0-------------0---0------------|----2------------------------------|
A|-----------------------------------|0----------------------------------|
E|-----------------------------------|-----------------------------------|
  my                life         I've loved  them  all



  A5                             E5
e|-------- -------- -------- --------|-------- -------- -------- --------|
B|-----------------------------------|-----------------------------------|
G|2--------2--------2----------------|-----------------------------------|
D|2--------2--------2------------2---|---------2--------2--------2-------|
A|0--------0--------0------------2---|---------2--------2--------2-------|
E|-------------------------------0---|---------0--------0--------0-------|
                                                                 But of
e|-------- 5------- -------- 0---4---|-------- -------- -------- --------|
B|2-----------------2-H-3------------|-----------------------------------|
G|-----------------------------------|-----------------------------------|
D|-----------------------------------|-----------------------------------|
A|-----------------------------------|-----------------------------------|
E|-----------------------------------|-----------------------------------|




  A                 E                 F#m         A7
e|-------- -------- -------- --------|-------- -------- -------- --------|
B|---2-------------------------------|2-----------2--------------2-------|
G|--2---------------1----------------|2-----------0--------------0-------|
D|-2----------------2----------------|4-----------2--------------2-------|
A|0-----------------2----------------|4-----------0--------------0-------|
E|------------------0----------------|2----------------------------------|
  all      these    friends  and      lovers                     there is



  D                 D(m)              A
e|-------- -------- -------- --------|-------- -------- -------- --------|
B|---------3---3-------------3-------|----2--------2----2---2--------2---|
G|-------2-----------------2-----2---|----2--------2----2---2--------2---|
D|0---0-------------0---0------------|----2--------2----2---2--------2---|
A|-----------------------------------|0------------0----0---0--------0---|
E|-----------------------------------|-----------------------------------|
  no                one          compared      with you          And these



                    E                 F#m          A7
e|-------- -------- -------- --------|-------- -------- -------- --------|
B|---------2-------------------------|2--------2---2----2--------2-------|
G|-------2-----2----1----------------|2--------2---0----0--------0-------|
D|----2-------------2----------------|4--------4---2----2--------2-------|
A|0-----------------2----------------|4--------4---0----0--------0-------|
E|------------------0----------------|2--------2-------------------------|
  memories          lose     their    meaning                    when I



  D                 D(m)              A
e|-------- -------- -------- --------|-------- -------- -------- --------|
B|---------3-----------------3-------|2------------2--------2------------|
G|-------2-----2-----------2-----2---|2------------2--------2------------|
D|0---0-------------0---0------------|2------------2--------2------------|
A|-----------------------------------|0------------0--------0------------|
E|-----------------------------------|-----------------------------------|
  think        of   love         as   something    new           Tough I



  F#m                                 D
e|-------- -------- -------- --------|2------- ----2--- 2------- --------|
B|2--------2---------------------2---|3------------3----3----------------|
G|2--------2---------------------2---|2------------2----2----------------|
D|4--------4---------------------4---|0------------0----0----------------|
A|4--------4---------------------4---|0------------0----0----------------|
E|2--------2---------------------2---|-----------------------------------|
  know     I'll     never    lose affection                          for



  G                                   A
e|3------- 3---3--- 3------- 3---3---|5------- ----5--- ----5--- 5-------|
B|3--------3---3----3--------3---3---|5------------5--------5----5-------|
G|4--------4---4----4--------4---4---|6------------6--------6----6-------|
D|5--------5---5----5--------5---5---|7------------7--------7----7-------|
A|5--------5---5----5--------5---5---|7------------7--------7----7-------|
E|3--------3---3----3--------3---3---|5------------5--------5----5-------|
  people  and  things            that went  before                   I


[ Tab from: http://www.guitartabs.cc/tabs/b/beatles/in_my_life_tab_ver_5.html ]
  F#m                                 B5
e|-------- -------- -------- --------|-------- -------- -------- --------|
B|2---------------------2------------|-----------------------------------|
G|2---------------------2------------|4------------4-------------4-------|
D|4---------------------4------------|4------------4--------4------------|
A|4---------------------4------------|2------------2----2----------------|
E|2---------------------2------------|-----------------------------------|
  know I'll often   stop and think about  them                       In



  D                 D(m)              A
e|-------- -------- -------- --------|-------- -------- -------- --------|
B|---------3-----------------3-------|2---2----2--------2---2-----2------|
G|-------2-----2-----------2-----2---|2---2----2--------2---2-----2------|
D|0---0-------------0---0------------|2---2----2--------2---2-----2------|
A|-----------------------------------|0---0----0--------0---0-----0------|
E|-----------------------------------|-----------------------------------|
  my                life




  Piano solo
                    E                 F#m          A7
e|-------- -------- -------- --------|-------- -------- -------- --------|
B|---------2-----------------0-------|2------------2-------------2-------|
G|-------2-----2-----------1---------|2------------0-------------0-------|
D|-----2-----------------2-----------|4------------2-------------2-------|
A|0----------------------------------|4------------0-------------0-------|
E|------------------0----------------|2----------------------------------|
                                            
e|-------- 9------- 121012-- --------|-------- -------- -------- 12--15--|
B|----1012-----10---------12-----12--|------------141214----15-----------|
G|---------------------------9-------|----1113-14------------------------|
D|-----------------------------------|-----------------------------------|
A|-----------------------------------|-----------------------------------|
E|-----------------------------------|-----------------------------------|

e|-------- -------- -------- --------|-------- -------- -------- --------|
B|-----------------------------------|-----------------------------------|
G|-------------4---------------------|----------------------6-4----------|
D|7--------------7--6--------7---6---|4------------5-------------7-5-3---|
A|----------------------7------------|---------------------------------7-|
E|-----------------------------------|-----------------------------------|





  D                 Dm                A
e|-------- ----2--- -------- ----1---|-------- ----0--- -------- --------|
B|---------3-----------------3-------|2--------2------------2------------|
G|-------2-----------------2---------|2------2-----------------------2---|
D|0---0-------------0---0------------|2----2-----------------------------|
A|-----------------------------------|0---0------------------------------|
E|-----------------------------------|-----------------------------------|
                                                      
e|--141214 --14--14 ---131213--------|--121012 --12--12 ---121012--------|
B|---------15--14---12-------15--12--|---------14--12---10-------14--12--|
G|-----------------------------------|-----------------------------------|
D|-----------------------------------|-----------------------------------|
A|-----------------------------------|-----------------------------------|
E|-----------------------------------|-----------------------------------|

e|-------- -------- -------- --------|-------- -------- -------- --------|
B|-----------------------------------|-----------------------------------|
G|-----------------------------------|--------------------6---6----6---6-|
D|---------7----------7-6-7----7---7-|---------7------------9----7---6---|
A|5-----------------5--------9---7---|4-----------------7----------------|
E|-----------------------------------|-----------------------------------|





                    E                 F#m                        A7
e|-------- -------- -------- --------|-------- -------- -------- --------|
B|---------2-----------------0-------|2--------2-----------------2-------|
G|-------2-----2-----------1-----1---|2-------2------------------0-------|
D|-----2-----------------2-----------|4------4-------------------2-------|
A|0----------------------------------|4-----4--------------------0-------|
E|------------------0----------------|2----2-----------------------------|
                                            
e|-------- 9------- 121012-- --------|-------- -------- -------- 12--15--|
B|----1012-----10---------12-----12--|------------141214----15-----------|
G|---------------------------9-------|----1113-14------------------------|
D|-----------------------------------|-----------------------------------|
A|-----------------------------------|-----------------------------------|
E|-----------------------------------|-----------------------------------|
                                                                 
e|-------- -------- -------- --------|-------- -------- -------- --------|
B|-----------------------------------|-----------------------------------|
G|-------------4---------------------|----------------------6-4----------|
D|7--------------7--6--------7---6---|4------------5-------------7-5-3---|
A|----------------------7------------|---------------------------------7-|
E|-----------------------------------|-----------------------------------|  





  D                 D(m)              A
e|-------- -------- -------- --------|-------- -------- -------- --------|
B|---------3-----------------3-------|2--------2---2-------------2-------|
G|-------2-----2-----------2-----2---|2-------2----2-------------0-------|
D|0---0-------------0---0------------|2------2-----2-------------2-------|
A|-----------------------------------|0-----0------0-------------0-------|
E|-----------------------------------|-----------------------------------|
                     
e|--141214 --14--14 ---131213--------|12-91012 9---0-4- 5-420--- --------|
B|---------15--14---12-------15--12--|-----------10----------320---------|
G|-----------------------------------|---------------------------2-------|
D|-----------------------------------|-----------------------------------|
A|-----------------------------------|-----------------------------------|
E|-----------------------------------|-----------------------------------|
                                                                 Though I
e|-------- -------- -------- --------|-------- -------- -------- --------|
B|-----------------------------------|-----------------------------------|
G|-----------------------------------|-----------------------------------|
D|---------7----------7-6-7----7---7-|---------7--------7--64------------|
A|5-----------------5--------9---7---|4------------7---------754---------|
E|-----------------------------------|--------------------------75-------|




  F#m                                 D
e|2------- -------- -------- --------|----2--- -------- -------- --------|
B|2----------------------------------|---3-------------------------------|
G|2----------------------------------|--2--------------------------------|
D|4----------------------------------|-0---------------------------------|
A|4----------------------------------|0----------------------------------|
E|2----------------------------------|-----------------------------------|
  know     I'll     never    lose affection                          for



  G                                   A
e|3------- 3---3--- 3------- 3---3---|5------- 5------- 5------ ---------|
B|3--------3---3----3--------3---3---|5--------5--------5----------------|
G|4--------4---4----4--------4---4---|6--------6--------6----------------|
D|5--------5---5----5--------5---5---|7--------7--------7----------------|
A|5--------5---5----5--------5---5---|7--------7--------7----------------|
E|3--------3---3----3--------3---3---|5--------5--------5----------------|
  people  and  things            that went  before                   I



  F#m F#5                                 B5
e|-------- -------- -------- --------|-------- -------- -------- --------|
B|2----------------------------------|-----------------------------------|
G|2----------------------------------|----4--------4---------------------|
D|4---4--------4--------4--------4---|----4--------4----4--------4-------|
A|4---4--------4--------4--------4---|----2--------2--------2------------|
E|2---2--------2--------2--------2---|-----------------------------------|
  know I'll often   stop and think about  them                       In



  D                 Dm                A
e|-------- 2------- -------- 1-------|-------- -------- -------- --------|
B|-------3-----------------3---------|2--------2---2-------------2-------|
G|------2------2----------2----------|2------2-----2-------------2-------|
D|0---0-------------0---0------------|2-----2------2-------------2-------|
A|-----------------------------------|0---0--------0-------------0-------|
E|-----------------------------------|-----------------------------------|
  my                life         I    love     you more



  A5                             E5
e|-------- -------- -------- --------|-------- -------- -------- --------|
B|-----------------------------------|-----------------------------------|
G|2--------2--------2----------------|-----------------------------------|
D|2--------2--------2------------2---|---------2--------2--------2-------|
A|0--------0--------0------------2---|---------2--------2--------2-------|
E|-------------------------------0---|---------0--------0--------0-------|
                                                                     In
e|-------- 5------- -------- 0---4---|-------- -------- 4---2--- 4-------|
B|2-----------------2-H-3------------|-----------------3-----------------|
G|-----------------------------------|----------------4------------------|
D|-----------------------------------|-----------------------------------|
A|-----------------------------------|-----------------------------------|
E|-----------------------------------|-----------------------------------|



 (.
  Dm
e|1------- -------- -------- --------|-------- --------|
B|3----------------------------------|-----------------|
G|2----------------------------------|-----------------|
D|0----------------------------------|-----------------|
A|0----------------------------------|-----------------|
E|-----------------------------------|-----------------|
  my                life         I    love     you 



  A5                             E5
e|-------- -------- -------- --------|-------- -------- -------- --------|
B|-----------------------------------|-----------------------------------|
G|2--------2--------2----------------|-----------------------------------|
D|2--------2--------2------------2---|---------2--------2---2--------2---|
A|0--------0--------0------------2---|---------2--------2---2--------2---|
E|-------------------------------0---|---------0--------0---0--------0---|
  more                                                 E7 E7sus2 E7
e|-------- 5------- -------- 0---4---|-------- -------- 4---2--- 4-------|
B|2-----------------2-H-3------------|-----------------3-----------------|
G|-----------------------------------|----------------4------------------2
D|-----------------------------------|-----------------------------------|
A|-----------------------------------|-----------------------------------|
E|-----------------------------------|-----------------------------------|



 (.
  A
e|0------- -------- -------- --------|-------- -------- -------- --------|
B|2----------------------------------|-----------------------------------|
G|2----------------------------------|-----------------------------------|
D|2----------------------------------|-----------------------------------|
A|0----------------------------------|-----------------------------------|
E|-----------------------------------|-----------------------------------|

e|5------- -------- -------- --------|-------- -------- -------- --------|
B2-----------------------------------|-----------------------------------|
G|-----------------------------------|-----------------------------------|
D|-----------------------------------|-----------------------------------|
A|-----------------------------------|-----------------------------------|
E|-----------------------------------|-----------------------------------|









        B  Bend
        R  Release
        /  Slide up
        \  Slide down
        H  Hammer-on
        P  Pull-off
        ~  Vibrato
        +  Harmonic
        x  Mute note
        .  Play note like a dot in standard notation
        ^  Ties two notes together
        (.  Pause
Comments