Beatles - In My Life Chords & Tabs

 

In My Life Chords & Tabs

Beatles Chords & Tabs

Version: 4 Type: Tab 0 ratings
1 star 2 stars 3 stars 4 stars 5 stars
comments

In My Life Tab

   
      The Beatles
In My Life : Rubber Soul

Intro Main Riff:
e|---5--------4---|----------------|---5--------4---|----------------|
B|2-----2-3-5-----|----------------|2-----2-3-5-----|----------------|
G|----------------|1--1-1-1--------|----------------|1--1-1-1--------|
D|----------------|2--2-2-2--------|----------------|2--2-2-2--------|
A|0-----0---------|2--2-2-2--------|0-----0---------|2--2-2-2--------|
E|------------0---|0--0-0-0--------|------------0---|0--0-0-0--------|

Verse: (develop a strumming pattern as you play)
          A              F#m           Bm  Dm        A  
e|--------5-------|-------2--------|----2---5-------|5---------------|
B|--------5-------|-------2--------|----3---6-------|5---------------|
G|--------6-------|-------2--------|----4---7-------|6---------------|
D|--------7-------|-------4--------|----4---7-------|7---------------|
A|--------7-------|-------4--------|----2---5-------|7---------------|
E|--------5-------|-------2--------|----------------|5---------------|
 There are places I'll remember, all my life though some have changed

          A              F#m           Bm  Dm        A  
e|--------5-------|-------2--------|----2---5-------|5---------------|
B|--------5-------|-------2--------|----3---6-------|5---------------|
G|--------6-------|-------2--------|----4---7-------|6---------------|
D|--------7-------|-------4--------|----4---7-------|7---------------|
A|--------7-------|-------4--------|----2---5-------|7---------------|
E|--------5-------|-------2--------|----------------|5---------------|
 Some forever not for better, some have gone and some remain

           F#m                Bm
e|----------2-----|------------2---|
B|----------2-----|------------3---|
G|----------2-----|------------4---|
D|----------4-----|------------4---|
A|----------4-----|------------2---|
E|----------2-----|----------------|
 All these places have their moments

        G                    A
e|------3---------|----------5-----|
B|------3---------|----------5-----|
G|------4---------|----------6-----|
D|------5---------|----------7-----|
A|------5---------|----------7-----|
E|------3---------|----------5-----|
 With lovers and friends, i still cant recall

           F#m               Bm       D    Dm        A  
e|----------2-----|-----------2----|--5-----5-------|5---------------|
B|----------2-----|-----------3----|--7-----6-------|5---------------|
G|----------2-----|-----------4----|--7-----7-------|6---------------|
D|----------4-----|-----------4----|--7-----7-------|7---------------|
A|----------4-----|-----------2----|--5-----5-------|7---------------|
E|----------2-----|----------------|----------------|5---------------|
 Some are dead and some are living, In my life I've loved them all

Main Riff:
e|---5--------4---|----------------|
B|2-----2-3-5-----|----------------|
G|----------------|1--1-1-1--------|
D|----------------|2--2-2-2--------|
A|0-----0---------|2--2-2-2--------|
E|------------0---|0--0-0-0--------|

Verse:
          A                     F#m           Bm  Dm     A
e|--------5-------|--------------2-|-----------2---5|----5-----------|
B|--------5-------|--------------2-|-----------3---6|----5-----------|
G|--------6-------|--------------2-|-----------4---7|----6-----------|
D|--------7-------|--------------4-|-----------4---7|----7-----------|
A|--------7-------|--------------4-|-----------2---5|----7-----------|
E|--------5-------|--------------2-|----------------|----5-----------|
 But of all these friends and lovers, there is no one compares with you
[ Tab from: http://www.guitartabs.cc/tabs/b/beatles/in_my_life_tab_ver_4.html ]
          A                     F#m           Bm      Dm        A
e|--------5-------|--------------2-|-----------2----|--5--------5----|
B|--------5-------|--------------2-|-----------3----|--6--------5----|
G|--------6-------|--------------2-|-----------4----|--7--------6----|
D|--------7-------|--------------4-|-----------4----|--7--------7----|
A|--------7-------|--------------4-|-----------2----|--5--------7----|
E|--------5-------|--------------2-|----------------|-----------5----|
And these memories lose their meaning,when i think of love as something new

           F#m                Bm
e|----------2-----|------------2---|
B|----------2-----|------------3---|
G|----------2-----|------------4---|
D|----------4-----|------------4---|
A|----------4-----|------------2---|
E|----------2-----|----------------|
Though i know I'll never lose affection

      G                     A
e|----3-----------|---------5------|
B|----3-----------|---------5------|
G|----4-----------|---------6------|
D|----5-----------|---------7------|
A|----5-----------|---------7------|
E|----3-----------|---------5------|
For people and things that went before

     F#m                        Bm
e|----2-----------|--------------2-|
B|----2-----------|--------------3-|
G|----2-----------|--------------4-|
D|----4-----------|--------------4-|
A|----4-----------|--------------2-|
E|----2-----------|----------------|
I know I'll often stop and think about them

    D   Dm     A    
e|--5----5-----5--|----------------|
B|--7----6-----5--|----------------|
G|--7----7-----6--|----------------|
D|--7----7-----7--|----------------|
A|--5----5-----7--|----------------|
E|-------------5--|----------------|
 In my life I love you more

Chorus: (play twice)
i prefer to strum the chords here, other versions of this song have the tab
for the piano solo, but it sounds terrible played with a guitar :-(
listen to the solo while you strum to get the rhythm it sounds alot tidier
than a picked solo

   A                F#m              Bm         Dm    A
e|-5--------------|--2-------------|--2----------5--|-5--------------|
B|-5--------------|--2-------------|--3----------6--|-5--------------|
G|-6--------------|--2-------------|--4----------7--|-6--------------| X2
D|-7--------------|--4-------------|--4----------7--|-7--------------|
A|-7--------------|--4-------------|--2----------5--|-7--------------|
E|-5--------------|--2-------------|----------------|-5--------------|

Last Verse:
           F#m                Bm
e|----------2-----|------------2---|
B|----------2-----|------------3---|
G|----------2-----|------------4---|
D|----------4-----|------------4---|
A|----------4-----|------------2---|
E|----------2-----|----------------|
Though I know I'll never lose affection

        G                    A
e|------3---------|----------5-----|
B|------3---------|----------5-----|
G|------4---------|----------6-----|
D|------5---------|----------7-----|
A|------5---------|----------7-----|
E|------3---------|----------5-----|
For people and things that went before

     F#m                        Bm
e|----2-----------|--------------2-|
B|----2-----------|--------------3-|
G|----2-----------|--------------4-|
D|----4-----------|--------------4-|
A|----4-----------|--------------2-|
E|----2-----------|----------------|
I know I'll often stop and think about them

    D   Dm     A    
e|--5----5-----5--|----------------|
B|--7----6-----5--|----------------|
G|--7----7-----6--|----------------|
D|--7----7-----7--|----------------|
A|--5----5-----7--|----------------|
E|-------------5--|----------------|
 In my life I love you more

Main Riff:
e|---5--------4---|----------------|
B|2-----2-3-5-----|----------------|
G|----------------|----------------|
D|----------------|----------------|
A|0-----0---------|----------------|
E|------------0---|----------------|

    Dm (strum once)
e|---5------------|----------------|
B|---6------------|----------------|
G|---7------------|----------------|
D|---7------------|----------------|
A|---5------------|----------------|
E|----------------|----------------|
 In my life I love you more

End Riff:
e|---5--------4---|-------5--------|
B|2-----2-3-5-----|9-7-9--5--------|
G|----------------|7------6--------|
D|----------------|9------7--------|
A|0-----0---------|7---------------|
E|------------0---|----------------|
Comments