Beatles - In My Life Chords & Tabs

 

In My Life Chords & Tabs

Beatles Chords & Tabs

Version: 3 Type: Tab 0 ratings
1 star 2 stars 3 stars 4 stars 5 stars
comments

In My Life Tab

   
----------------------------------------------------------------------------                         
IN MY Life - Beatles
----------------------------------------------------------------------------
Tabbed by: JboyShyne@Yahoo.com

Here's a fingerstyle arrangement of In My Life by the Beatles that I recently arranged
on my classical guitar. Although the Beatles did the tune in A, I found it easier to
fingerstyle it in the key of G, especially during the intro with the open G and Dsus
chords. If one wants to play it in A, a capo at the 2nd fret could be employed and then
everything would be moved up 2 frets.

Tuning: Standard   
Timing 4/4  Intro
  G                D       Dsus       G                 D     Dsus
e|----3---------2-|--2-----3p2-------|-----3---------2-|--2---3p2----------|
B|0-------0-1-3---|------3-----3-----|-0-------0-1-3---|----3-----3--------|
G|----------------|--------------2---|-----------------|------------2------|
D|--------------0-|----------------0-|---------------0-|--------------0-0-2|
A|----2-----------|------------------|-----2-----------|-------------------|
E|3-------3-------|------------------|-3-------3-------|-------------------|
                                                                  There are
  G                 Em                 C      Cm         G
e|-----------------|------------------|-----------------|-----------------|
B|-------------0---|-3-0------------0-|-----------------|---0---0---------|
G|-2---0---2-------|--------------2---|-2--h4p2p0-------|-----------------|
D|-----------------|------------------|---------------1-|-0-----------0-2-|
A|-0-------0-------|-2------------0---|-0---------------|-----------------|
E|-----3-------3---|---3------------3-|---------3-------|---3---3---------|
   places  I'll re  member . . .
  G                 Em                 C      Cm         G
e|-----------------|------------------|-----------------|-----------------|
B|-------------0---|-3-0------------0-|-----------------|---0---0---------|
G|-2---0---2-------|--------------2---|-2--h4p2p0-------|-------------0-2-|
D|-----------------|------------------|---------------1-|-0---------------|
A|-0-------0-------|-2------------0---|-0---------------|---------------0-|
E|-----3-------3---|---3------------3-|---------3-------|---3---3-----3---|

  Em                C                  F                 G 
e|-----------------|------------------|-----------------|-----------------|
B|-0---------------|-0--------------0-|-1-0-------------|---0-0-0---------|
G|-----2---0-------|---2--------------|-----2-0-0-------|-------------0-2-|
D|-------------2---|---------2--------|---------------1-|-0---------------|
A|-----0-----------|---0--------------|-----0-----------|---------------0-|
E|-3-------3---0---|-3-------0------3-|-1-3---3-3-------|---3-3-3-----3---|

  Em                A7                 Cm                G
e|-----------------|------------------|-----------------|-----------------|
B|-0---------------|-0----------------|-----------------|-----0-0---------|
G|---2-2-0-0-----0-|---2--------------|-3-2-0-2-0-------|-----------------|
D|-----------2-2---|----------------2-|---------------1-|-0---------------|
A|---0-0-----------|---0--------------|-1-0---0---------|-----------------|
E|-3-----3-3-0-0-3-|-3--------------0-|-----3---3-------|-----3-3---------|
Intro
  G                D       Dsus       G                 D      Dsus
e|----3---------2-|--2-----3p2-------|-----3---------2-|--2---3p2----------|
B|0-------0-1-3---|------3-----3-----|-0-------0-1-3---|----3-----3--------|
G|----------------|--------------2---|-----------------|------------2------|
D|--------------0-|----------------0-|---------------0-|--------------0-0-2|
A|----2-----------|------------------|-----2-----------|-------------------|
E|3-------3-------|------------------|-3-------3-------|-------------------|
                                                                    But of
  G                 Em                 C      Cm         G
e|-----------------|------------------|-----------------|-----------------|
B|-------------0---|-3-0------------0-|-----------------|---0---0---------|
G|-2---0---2-------|--------------2---|-2--h4p2p0-------|-----------------|
D|-----------------|------------------|---------------1-|-0-----------0-2-|
A|-0-------0-------|-2------------0---|-0---------------|-----------------|
E|-----3-------3---|---3------------3-|---------3-------|---3---3---------|
   all these . . .. .
  G                 Em                 C      Cm         G
e|-----------------|------------------|-----------------|-----------------|
B|-------------0---|-3-0------------0-|-----------------|---0---0---------|
G|-2---0---2-------|--------------2---|-2--h4p2p0-------|-------------0-2-|
D|-----------------|------------------|---------------1-|-0---------------|
A|-0-------0-------|-2------------0---|-0---------------|---------------0-|
E|-----3-------3---|---3------------3-|---------3-------|---3---3-----3---|
[ Tab from: http://www.guitartabs.cc/tabs/b/beatles/in_my_life_tab_ver_3.html ]
  Em                C                  F                 G 
e|-----------------|------------------|-----------------|-----------------|
B|-0---------------|-0--------------0-|-1-0-------------|---0-0-0---------|
G|-----2---0-------|---2--------------|-----2-0-0-------|-------------0-2-|
D|-------------2---|---------2--------|---------------1-|-0---------------|
A|-----0-----------|---0--------------|-----0-----------|---------------0-|
E|-3-------3---0---|-3-------0------3-|-1-3---3-3-------|---3-3-3-----3---|

  Em                A7                 Cm                G
e|-----------------|------------------|-----------------|-----------------|
B|-0---------------|-0----------------|-----------------|-----0-0---------|
G|---2-2-0-0-----0-|---2--------------|-3-2-0-2-0-------|-----------------|
D|-----------2-2---|----------------2-|---------------1-|-0---------------|
A|---0-0-----------|---0--------------|-1-0---0---------|-----------------|
E|-3-----3-3-0-0-3-|-3--------------0-|-----3---3-------|-----3-3---------|
Solo
  G            D                Em          G7       
e|-----------10h12p10----------|------------------------13-|
B|---10-12------------10----10-|---------12h13p12-13-15----|
G|-12-----12-------------11----|-9/11/12-------------------|
D|-----------------------------|---------------------------|
A|-----------------------------|---------------------------|
E|-----------------------------|---------------------------|

  C             Cm6             G   
e|-12--12--12--12--12\10/12----|-10--10--10--10-10\8/10------|
B|---15--13--12------------13--|---13--12--10-----------12-10-|
G|---------------14----------14|---------------12-------------|
D|-----------------------------|------------------------------|
A|-----------------------------|------------------------------|
E|-----------------------------|------------------------------|

  G            D                Em          G7       
e|-----------10h12p10----------|------------------------13-|
B|---10-12------------10----10-|---------12h13p12-13-15----|
G|-12-----12-------------11----|-9/11/12-------------------|
D|-----------------------------|---------------------------|
A|-----------------------------|---------------------------|
E|-----------------------------|---------------------------|

  C             Cm6            G   
e|12--12--12--12--12\10/12----|-10--10-------------------------------------|
B|--15--13--12------------13--|---12--12-----------------------------------|
G|--------------14----------14|---------12-11-12-11-9-------------------0-|
D|----------------------------|-----------12----------12-10-9---------2----|
A|----------------------------|-------------------------------12-10--------|
E|----------------------------|--------------------------------------------|
                                                                     Tho' I
  Em                C                  F                 G 
e|-----------------|------------------|-----------------|-----------------|
B|-0---------------|-0--------------0-|-1-0-------------|---0-0-0---------|
G|-----2---0-------|---2--------------|-----2-0-0-------|-------------0-2-|
D|-------------2---|---------2--------|---------------1-|-0---------------|
A|-----0-----------|---0--------------|-----0-----------|---------------0-|
E|-3-------3---0---|-3-------0------3-|-1-3---3-3-------|---3-3-3-----3---|
  Know I'll never  . . .
  Em                A7                 Cm                G
e|-----------------|------------------|-----------------|-----------------|
B|-0---------------|-0----------------|-----------------|-----0-0---------|
G|---2-2-0-0-----0-|---2--------------|-3-2-0-2-0-------|-----------------|
D|-----------2-2---|----------------2-|---------------1-|-0---------------|
A|---0-0-----------|---0--------------|-1-0---0---------|-----------------|
E|-3-----3-3-0-0-3-|-3--------------0-|-----3---3-------|-----3-3---------|
Intro
  G                D       Dsus       G                 D      Dsus
e|----3---------2-|--2-----3p2-------|-----3---------2-|--2---3p2----------|
B|0-------0-1-3---|------3-----3-----|-0-------0-1-3---|----3-----3--------|
G|----------------|--------------2---|-----------------|------------2------|
D|--------------0-|----------------0-|---------------0-|--------------0-0--|
A|----2-----------|------------------|-----2-----------|-------------------|
E|3-------3-------|------------------|-3-------3-------|-------------------|
 slow
 Cm                  G           G                D   D  Em  D   G
|-------------------|-----------|-----3---------|-2---2--0---2-|-3---------|
|-------------------|-----0---0-|-0-------0-1-3-|-3---3------3-|-0---------|
|3--2--0--2--0------|-----------|---------------|-2---2--0---2-|-0---------|
|-----------------1-|-0---------|---------------|-0---0------0-|-0---------|
|1--0-----0---------|-----------|-----2---------|--------------|-2---------|
|------3-----3------|-----3---3-|-3-------3-----|--------------|-3---------|


| /  slide up
| \  slide down
| h  hammer-on
| p  pull-off
| ~  vibrato
| +  harmonic
| x  Mute note
============================================================================
Comments