Beatles - In My Life Chords & Tabs

 

Beatles Chords & Tabs

Version: 1 Type: Tab 0 ratings
1 star 2 stars 3 stars 4 stars 5 stars
comments

In My Life Tab

   
In My Life
----------

Main Riff: E----5-----0-4-
           B--2---2-3-----
           G--2-----------

There are places I'll remember  
          A             F#m

All my life though some have changed
       Bm Dm       A

Some for ever not for better
         A            F#m

Some have gone, and some remain.
          Bm Dm     A

All these places have their moments
          F#m               Bm

With lovers and friends, I still can recall
     G                     A

Some are dead and some are living
         F#m               Bm

In my life, I've loved them all
   D  Dm         A

{Repeat main riff, and continue as verse above}

But of all these friends and lovers
There is no one compared with you
And these memories lose their meaning
When I think of love as something new
Thought I know I'll never lose affection
For people and things that went before
I know I'll often stop and think about them
In my life I'll love you more
In my life I'll love you more

At the end, there is the first riff above, then a higher Dm (played as a bar
chord at the 5th fret) then the riff below:

                             E7       A
Last Riff: E----5-----0-4----4--2--4--5
           B--2---2-3--------3--------5
           G--2--------------4--------6
           D--------------------------7

CHORD FORMATIONS:
A   x 0 2 2 2 0
F#m 2 4 4 2 2 2  (Bar across 2nd fret)
Bm  x x 4 4 3 2
Dm  x x 0 2 3 1
G   3 2 0 0 3 3



=================================


e -|-------5-------------------4---------5-------------------4-|
B -|--2---------2----3----5---------2---------2----3----5------|
G -|-----------------------------------------------------------|
D -|-----------------------------------------------------------|
A -|-----------------------------------------------------------|
E -|-----------------------------------------------------------|            
   
    Then the ending:

e -|--------5------------------4--------4----2----4---5--------|
B -|---2--------2----3----5------------------------------------|
G -|-----------------------------------------------------------|
D -|-----------------------------------------------------------|
A -|-----------------------------------------------------------|
E -|-----------------------------------------------------------|



============================

                               In My Life

                             By The Beatles

                       From The Rubber Sole Album      

                    Tab By Roi Ben Menachem, Israel

Start

e---5-------4-0-0-0------\
B-2---2-3-5---0-0-0------|
G-------------1-1-1------|
D-------------2-2-2------|
A-0---0-------2-2-2------|
E-----------0-0-0-0------/
[ Tab from: http://www.guitartabs.cc/tabs/b/beatles/in_my_life_tab.html ]
End

e---5-------4-4-2-4-5---\
B-2---2-3-5-------------|
G-----------------------|
D-----------------------|
A-0---0-------------0---|
E-----------0-0-0-0-----/

=====================================



    (A)          (E)
|-----5-------------|--------|
|----------------9--|-----/--|
|--6-----6h7--9-----|--.-/---|
|-------------------|---/-.--|
|-------------------|--/-----|
|-------------------|--------|





             (A)     (E7) (F#m)  (A7)      (D) (Dm)    (A)
    There are places I'll remember, all my life, though some have
changed


                 (E7)    (F#m) (A7)        (D)(Dm)  (A)
    Some forever, not for better, some have gone and some remain.



          (F#m)            (Bm)          (G)                   (A)
 All these places had their moments, with lovers and friends, I still
can recal.

         (F#m)             (B)         (D)          (A)
 Some are dead and some are living.  In my life I've loved them all.


(OPENING RIFF)


ELECTRIC PIANO SOLO:


|------------9-----12p10--12----------------------9p7--9---10--12--15--|
|-----10h12----10-------------12-----12---7h9/10-----------------------|
|---------------------------------9------------------------------------|
|----------------------------------------------------------------------|
|--0-------------------------------------------------------------------|
|----------------------------------------------------------------------|


|-14-12-14----14----14----13p12--13-------12-10-12-9-12----12----12p10--12-9-----|
|----------15----14----12-----------15-12---------------12----10-------------12--|
|--------------------------------------------------------------------------------|
|--------------------------------------------------------------------------------|
|--------------------------------------------------------------------------------|
|--------------------------------------------------------------------------------|


(FIRST LINE AGAIN)


|--12--9h10h12--9-------------------------------|
|-----------------10---9---10p9p7---------------|
|--------------------9-------------9p7p6--------|
|------------------------------------------9p7--|
|-----------------------------------------------|
|-----------------------------------------------|



	The rest of the song is the same except
	for this little bit at the end:


  (E7)      (A)
|------------5--|
|--9--7-9----5--|
|--7---------6--|
|--9---------7--|
|--7------------|
|---------------|


CHORDS USED:

A- 566755
E7- 020100
F#m- 244222
A7- 575655
D- X57775
Dm- X57765
Bm- X24432
G- 355433
B- X24442
Comments