Beatles - In My Life Chords & Tabs

 

In My Life Chords & Tabs

Beatles Chords & Tabs

Version: 3 Type: Bass Tab 0 ratings
1 star 2 stars 3 stars 4 stars 5 stars
comments

In My Life Bass Tab

the beatles
in my life
tabbed by saturns_bassman

   i tabbed out one of the nersions but put more work in this        one...enjoy!!   

||---------------------------------|----------------------------------|
|*----------------------------2----|----------------------------------|
|*0-------0-------0---2---4--------|----------------------------------|
||---------------------------------|---------0-----------0------------|


|----------------------------------|----------------------------------|
|-----------------------------2----|----------------------------------|
|-0-------0-------0---2---4--------|----------------------------------|
|----------------------------------|---------0-----------0------------|


||---------------------------------|----------------------------------|
|*---------------------------------|-2-----------2---2-------2--------|
|*0-----------0---0-----------0----|----------------------------------|
||---------------------------------|----------------------------------|

|----------------------------------|----------------------------------|
|-0-----------0---0-----------0----|----------------------------------|
|----------------------------------|-0---0-------0-------0---0--------|
|----------------------------------|----------------------------------|

|----------------------------------|----------------------------------|
|----------------------------------|-2-----------2-----------2---2----|
|-0-----------0-----------0--------|----------------------------------|
|----------------------------------|----------------------------------|

|----------------------------------|----------------------------------|
|-0-----------0-------0-------0----|----------------------------------|
|----------------------------------|-0---0-------0-----------0---0----|
|----------------------------------|----------------------------------|
[ Tab from: http://www.guitartabs.cc/tabs/b/beatles/in_my_life_btab_ver_3.html ]
|----------------------------------|----------------------------------|
|----------------------------------|-0-----------0---0-----------0----|
|----------------------------------|----------------------------------|
|-2-----------2---2-----------2----|----------------------------------|

|----------------------------------|----------------------------------|
|----------------------------------|----------------------------------|
|----------------------------------|-0-----------0-------0-------0----|
|-3-----------3---3-----------4----|----------------------------------|

|----------------------------------|----------------------------------|
|----------------------------------|----------------------------------|
|----------------------------------|-2-----------2---2---2-------2----|
|-2-----------2---2---2-------2----|----------------------------------|

|----------------------------------|---------------------------------||
|-0-----------0-------0-------0----|---------------------------------*|
|----------------------------------|-0-----------0---0---0-------0---*|
|----------------------------------|---------------------------------||

|----------------------------------|----------------------------------|
|-----------------------------2----|----------------------------------|
|-0-------0-------0---2---4--------|----------------------------------|
|----------------------------------|-------------0---------------0----|

|----------------------------------|----------------------------------|
|-0--------------------------------|----------------------------------|
|----------------------------------|----------------------------------|
|----------------------------------|----------------------------------|

|----------------------------------|----------------------------------|
|----------------------------------|-----------------------------2----|
|----------------------------------|-0-------0-------0---2---4--------|
|----------------------------------|----------------------------------|

|----------------------------------|----------------------------------|
|-----------------2-------2--------|----------------------------------|
|----------------------------------|-0--------------------------------|
|----------------------------------|----------------------------------|
Comments