Beatles - Im So Tired Chords & Tabs

 

Im So Tired Chords & Tabs

Beatles Chords & Tabs

Version: 5 Type: Bass Tab 0 ratings
1 star 2 stars 3 stars 4 stars 5 stars
comments

Im So Tired Bass Tab

   
I’m So Tired-The Beatles
Tab By: BBallin1337
Email: Tennistitan5@hotmail.com

The song is divided into three parts

First note after the guitar goes bum bum bum…

Verse (X2)

G|---------------|---------------|----------------|
D|---------------|---------------|----------------|
A|-----5-7-------|-----5-7-------|-------55555555-|
E|-5-4-----0-2-4-|-5-2-----0-2-4-|-5-4-2----------|

Chorus Part 1
You'd say I'm putting you on…
G|---------------------------------|
D|---------------------------------|
A|-0-0-4-7-0-0-4-7-0-0-4-7-0-0-4-7-|
E|---------------------------------|
You know I can't sleep…
G|---------------------------------|
D|---------------------------------|
A|---------------------------------|
E|-0-0-4-7-0-0-4-7-0-0-4-7-0-0-4-7-|
[ Tab from: http://www.guitartabs.cc/tabs/b/beatles/im_so_tired_btab_ver_5.html ]
Chorus Part 2
(Played During “I give you everything I’ve got for a little peace of mind” The open A 
come on the same beat as the word mind)
G|------------------|
D|-0-0-0-0-0-0-0-0--|
A|----------------0-|
E|------------------|

Verse

G|---------------|---------------|----------------|
D|---------------|---------------|----------------|
A|-----5-7-------|-----5-7-------|-------55555555-|
E|-5-4-----0-2-4-|-5-2-----0-2-4-|-5-4-2----------|

Chorus Part 1

G|---------------------------------|
D|---------------------------------|
A|-0-0-4-7-0-0-4-7-0-0-4-7-0-0-4-7-|
E|---------------------------------|

G|---------------------------------|
D|---------------------------------|
A|---------------------------------|
E|-0-0-4-7-0-0-4-7-0-0-4-7-0-0-4-7-|

Chorus Part  2 (X3)

G|------------------|
D|-0-0-0-0-0-0-0-0--|
A|----------------0-|
E|------------------|
Comments