Beatles - Im So Tired Chords & Tabs

 

Im So Tired Chords & Tabs

Beatles Chords & Tabs

Version: 4 Type: Bass Tab 0 ratings
1 star 2 stars 3 stars 4 stars 5 stars
comments

Im So Tired Bass Tab

IíM SO TIRED

By John Lennon

VERSE

  4/4
G|---------------------------------|---------------------------------|
D|-7---------------6---------------|-----------------------------6---|
A|---------------------------------|-5---------------7-------9-------|
E|---------------------------------|---------------------------------|

G|---------------------------------|---------------------------------|
D|-7---------------4---------------|-------------------------6-------|
A|-----------------------------7---|-5---------------7---9-------7---|
E|---------------------------------|---------------------------------|

                                    2/4
G|---------------------------------|-----------------|
D|-7-------------------------------|-----------------|
A|-----------------7---------------|-9---------------|
E|---------------------------------|-----------------|

  4/4
G|---------------------------------|---------------------------------|
D|---------------------------------|-7---------------6---------------|
A|-5---5---5---5---5---8---7---5---|---------------------------------|
E|---------------------------------|---------------------------------|

G|---------------------------------|---------------------------------|
D|-------------------------6-------|-7---------------4---------------|
A|-5---------------7---9-------7---|-----------------------------7---|
E|---------------------------------|---------------------------------|

G|---------------------------------|---------------------------------|
D|-------------------------6-------|-7-------------------------------|
A|-5---------------7---9-------7---|---------4---5---7---7---9---7---|
E|---------------------------------|---------------------------------|

G|-----------------|-----------------7---------------|
D|-----------------|-------------------9-7\5-3-5-3---|
A|-9-------9-------|-5-----------5-------------------|
E|-----------------|---------------------------------|

CHORUS

G|---------------------------------|---------------------------------|
D|-7---------------7---------------|-7---------------7-----------7---|
A|---------7---------------7-------|---------7---------------7-------|
E|---------------------------------|---------------------------------|

G|---------------------------------|---------------------------------|
D|-7---7-----------7---7-----------|-7---7-----------7---7-----------|
A|---------7---7-----------7---7---|---------7---7-----------7---7---|
E|---------------------------------|---------------------------------|
[ Tab from: http://www.guitartabs.cc/tabs/b/beatles/im_so_tired_btab_ver_4.html ]
G|---------------------------------|---------------------------------|
D|-----------------4---4---5---6---|-7-------------------------------|
A|-5---5---7---7-------------------|---------------------------------|
E|---------------------------------|---------------------------------|

VERSE

  4/4
G|---------------------------------|---------------------------------|
D|-7---------------6---------------|-------------------------6-------|
A|---------------------------------|-5---------------7---9-------7---|
E|---------------------------------|---------------------------------|

G|---------------------------------|---------------------------------|
D|-7---------------4---------------|-------------------------6-------|
A|---------------------------------|-5---------------7---9-------7---|
E|---------------------------------|---------------------------------|

                                    2/4
G|---------------------------------|-----------------|
D|-7-------------------------------|-----------------|
A|---------4---5---7---7---9---7---|-9-------9-------|
E|---------------------------------|-----------------|

  4/4                              CHORUS
G|-----------------7---------------|---------------------------------|
D|-------------------9-7\5-3-5-3---|-7---------------7---------------|
A|-5-----------5-------------------|---------7---------------7-------|
E|---------------------------------|---------------------------------|

G|---------------------------------|---------------------------------|
D|-7---------------7-----------7---|-7---7-----------7---7-----------|
A|---------7---------------7-------|---------7---7-----------7---7---|
E|---------------------------------|---------------------------------|

G|---------------------------------|---------------------------------|
D|-7---7-----------7---7-----------|-----------------4---4---5---6---|
A|---------7---7-----------7---7---|-5---5---7---7-------------------|
E|---------------------------------|---------------------------------|

G|---------------------------X-----|---------------------------------|
D|-7-------------------------6-X---|-----------------4---4---5---6---|
A|-----------------------------7---|-5---5---7---7-------------------|
E|---------------------------------|---------------------------------|

G|---------------------14\-14\-14\-|---------------------------------|
D|-7-------------------------------|-----------------4---4---5---6---|
A|---------------------------------|-5---5---7---7-------------------|
E|---------------------------------|---------------------------------|

G|---------------------------------|
D|-7-------------------------------|
A|---------------------------------|
E|---------------------------------|
Comments