Beatles - Im Happy Just To Dance With You Chords & Tabs

 

Im Happy Just To Dance With You Chords & Tabs

Beatles Chords & Tabs

Version: 1 Type: Tab 0 ratings
1 star 2 stars 3 stars 4 stars 5 stars
comments

Im Happy Just To Dance With You Tab

   
-------------------------------------------------------------------------
  THE BEATLES - I'M HAPPY JUST TO DANCE WITH YOU (Lennon/McCartney) From
                A HARD DAY'S NIGHT album. Released March 20th 1964.
-------------------------------------------------------------------------
  Tabbed by:PJVillanueva


Before this dance is through
I think I'll love you too
I'm so happy when you dance with me
I don't want to kiss or hold your hand
If its funny try and understand
There is really nothing else I'd rather do
'cause I'm happy just to dance with you

I don't need to hug or hold you tight
I just want to dance with you all night
In this world there's nothing I would rather do
'cause I'm happy just to dance with you

Just to dance with you
Is everything I need
Before this dance is through
I think I'll love you too
I'm so happy when you dance with me

If somebody tries to take my place
Let's pretend we just can't see his face
In this world there's nothing I would rather do
'cause I'm happy just to dance with you

Just to dance with you
Is everything I need
Before this dance is through
I think I'll love you too
I'm so happy when you dance with me

If somebody tries to take my place
Let's pretend we just can't see his face
In this world there's nothing I would rather do
I discovered I'm in love with you
'cause I'm happy just to dance with you








  C#m                             F#m         Ab
e|4------ ----4-- ------- -------|2------ ----4-- ----4-- ----4--|
B|5-----------5------------------|2-----------4-------4-------4--|
G|6-----------6------------------|2-----------5-------5-------5--|
D|6-----------6------------------|4-----------6-------6-------6--|
A|4-----------4------------------|4-----------6-------6-------6--|
E|-------------------------------|2-----------4-------4-------4--|


  C#m                             F#m         Ab
e|4------ ----4-- ----4-- 4------|2------ ----4-- ----4-- ----4--|
B|5-----------5-------5---5------|2-----------4-------4-------4--|
G|6-----------6-------6---6------|2-----------5-------5-------5--|
D|6-----------6-------6---6------|4-----------6-------6-------6--|
A|4-----------4-------4---4------|4-----------6-------6-------6--|
E|-------------------------------|2-----------4-------4-------4--|
                                                      Before this

  C#m                             F#m               Ab
e|4-----4 4---4-- ------- -------|2-----2 2---2-- --4-4-- 4------|
B|5-----5-5---5------------------|2-----2-2---2-----4-4---4------|
G|6-----6-6---6------------------|2-----2-2---2-----5-5---5------|
D|6-----6-6---6------------------|4-----4-4---4-----6-6---6------|
A|4-----4-4---4------------------|4-----4-4---4-----6-6---6------|
E|-------------------------------|2-----2-2---2-----4-4---4------|
  dance is through   I think I'll love  you  too          I'm so

  A6                B6            E                 B
e|2-----2 2---2-- --4-4-- 4---4--|4-----4 4---4-- --2-2-- 2------|
B|2-----2-2---2-----4-4---4---4--|5-----5-5---5-----4-4---4------|
G|2-----2-2---2-----4-4---4---4--|4-----4-4---4-----4-4---4------|
D|2-----2-2---2-----4-4---4---4--|6-----6-6---6-----4-4---4------|
A|0-----0-0---0-----2-2---2---2--|7-----7-7---7-----2-2---2------|
E|-------------------------------|-------------------------------|
  happy   when you dance     with me                      I don't

  E                 Abm           F#m               B
e|4-----4 4---4-- --4-4-- 4------|2-----2 2---2-- --2-2-- 2------|
B|5-----5-5---5-----4-4---4------|2-----2-2---2-----4-4---4------|
G|4-----4-4---4-----4-4---4------|2-----2-2---2-----4-4---4------|
D|6-----6-6---6-----6-6---6------|4-----4-4---4-----4-4---4------|
A|7-----7-7---7-----6-6---6------|4-----4-4---4-----2-2---2------|
E|-------------------------------|-------------------------------|
  want to kiss or hold your   hand                        If it's

  E                 Abm           F#m               B
e|4-----4 4---4-- --4-4-- 4------|2-----2 2---2-- --2-2-- 2------|
B|5-----5-5---5-----4-4---4------|2-----2-2---2-----4-4---4------|
G|4-----4-4---4-----4-4---4------|2-----2-2---2-----4-4---4------|
D|6-----6-6---6-----6-6---6------|4-----4-4---4-----4-4---4------|
A|7-----7-7---7-----6-6---6------|4-----4-4---4-----2-2---2------|
E|-------------------------------|-------------------------------|
  funny   try and under.......stand                       there is

  A                 F#m           E                 C#m
e|0-----0 0---0-- --2-2-- 2------|4-----4 4---4-- --4-4-- 4------|
B|2-----2-2---2-----2-2---2------|5-----5-5---5-----5-5---5------|
G|2-----2-2---2-----2-2---2------|4-----4-4---4-----6-6---6------|
D|2-----2-2---2-----4-4---4------|6-----6-6---6-----6-6---6------|
A|0-----0-0---0-----4-4---4------|7-----7-7---------4-4---4------|
E|-------------------------------|------------7------------------|
  really  nothing else I'd rather do                     'cause I'm

  A                 B             E                 B
e|0-----0 0---0-- --2-2-- 2------|4-----4 4---4-- --2-2-- 2------|
B|2-----2-2---2-----4-4---4------|5-----5-5---5-----4-4---4------|
G|2-----2-2---2-----4-4---4------|4-----4-4---4-----4-4---4------|
D|2-----2-2---2-----4-4---4------|6-----6-6---6-----4-4---4------|
A|0-----0-0---0-----2-2---2------|7-----7-7---7-----2-2---2------|
E|-------------------------------|-------------------------------|
  happy   just to dance      with you                     I don't 
                  Baug5
e|------- ------- 3------ -------|------- ------- ------- -------|
B|----------------4--------------|-------------------------------|
G|----------------4--------------|-------------------------------|
D|----------------5--------------|-------------------------------|


  E                 Ab            F#m               B
e|4-----4 4---4-- --4-4-- 4------|2-----2 2---2-- --2-2-- 2------|
B|5-----5-5---5-----4-4---4------|2-----2-2---2-----4-4---4------|
G|4-----4-4---4-----4-4---4------|2-----2-2---2-----4-4---4------|
D|6-----6-6---6-----6-6---6------|4-----4-4---4-----4-4---4------|
A|7-----7-7---7-----6-6---6------|4-----4-4---4-----2-2---2------|
E|-------------------------------|-------------------------------|
  need to hug or  hold you    tight                       I just


  E                 Ab            F#m               B
e|4-----4 4---4-- --4-4-- 4------|2-----2 2---2-- --2-2-- 2------|
B|5-----5-5---5-----4-4---4------|2-----2-2---2-----4-4---4------|
G|4-----4-4---4-----4-4---4------|2-----2-2---2-----4-4---4------|
D|6-----6-6---6-----6-6---6------|4-----4-4---4-----4-4---4------|
A|7-----7-7---7-----6-6---6------|4-----4-4---4-----2-2---2------|
E|-------------------------------|-------------------------------|
  want to dance with you all  night                        In this

  A                 F#m           E                 Ab
e|0-----0 0---0-- --2-2-- 2------|4-----4 4---4-- --4-4-- 4------|
B|2-----2-2---2-----2-2---2------|5-----5-5---5-----5-5---5------|
G|2-----2-2---2-----2-2---2------|4-----4-4---4-----6-6---6------|
D|2-----2-2---2-----4-4---4------|6-----6-6---6-----6-6---6------|
A|0-----0-0---0-----4-4---4------|7-----7-7---------4-4---4------|
E|-------------------------------|------------7------------------|
world there's nothing I would rather do                  'cause I'm

  A                 B             C#m
e|0-----0 0---0-- --2-2-- 2------|4------ ----4-- --4-4-- 4------|
B|2-----2-2---2-----4-4---4------|5-----------5-----5-5---5------|
G|2-----2-2---2-----4-4---4------|6-----------6-----6-6---6------|
D|2-----2-2---2-----4-4---4------|6-----------6-----6-6---6------|
A|0-----0-0---0-----2-2---2------|4-----------4-----4-4---4------|
E|-------------------------------|-------------------------------|
  happy   just to dance      with you                     Just to

                                  F#m         Ab
e|4------ ----4-- ------- 4------|2------ ----4-- ----4-- 4------|
B|5-----------5-----------5------|2-----------4-------4---4------|
G|6-----------6-----------6------|2-----------5-------5---5------|
D|6-----------6-----------6------|4-----------6-------6---6------|
A|4-----------4-----------4------|4-----------6-------6---6------|
E|-------------------------------|2-----------4-------4---4------|
  dance      with you                                         is

  C#m                             F#m         Ab
e|4------ ----4-- ------- 4------|2------ ----4-- ----4-- 4------|
B|5-----------5-----------5------|2-----------4-------4---4------|
G|6-----------6-----------6------|2-----------5-------5---5------|
D|6-----------6-----------6------|4-----------6-------6---6------|
A|4-----------4-----------4------|4-----------6-------6---6------|
E|-------------------------------|2-----------4-------4---4------|
  everything              I       need                Before this 
[ Tab from: http://www.guitartabs.cc/tabs/b/beatles/im_happy_just_to_dance_with_you_tab.html ]
  C#m                             F#m         Ab
e|4------ ----4-- ----4-- 4------|2------ ----4-- ----4-- 4------|
B|5-----------5-------5---5------|2-----------4-------4---4------|
G|6-----------6-------6---6------|2-----------5-------5---5------|
D|6-----------6-------6---6------|4-----------6-------6---6------|
A|4-----------4-------4---4------|4-----------6-------6---6------|
E|-------------------------------|2-----------4-------4---4------|
  dance  is  through  I think I'll love you too           I'm so


  A6          B6                  E           B
e|2------ ----4-- ------- 4------|4------ ----2-- ----2-- 2------|
B|2-----------4-----------4------|5-----------4-------4---4------|
G|2-----------4-----------4------|4-----------4-------4---4------|
D|2-----------4-----------4------|6-----------4-------4---4------|
A|0-----------2-----------2------|7-----------2-------2---2------|
E|-------------------------------|-------------------------------|
  happy when you  dance      with me                      If somebody

  E                 Abm           F#m               B
e|4-----4 4---4-- --4-4-- 4------|2-----2 2---2-- --2-2-- 2------|
B|5-----5-5---5-----4-4---4------|2-----2-2---2-----4-4---4------|
G|4-----4-4---4-----4-4---4------|2-----2-2---2-----4-4---4------|
D|6-----6-6---6-----6-6---6------|4-----4-4---4-----4-4---4------|
A|7-----7-7---7-----6-6---6------|4-----4-4---4-----2-2---2------|
E|-------------------------------|-------------------------------|
          tries to take my    place                       Let's pretend

  E                 Abm           F#m               B
e|4-----4 4---4-- --4-4-- 4------|2-----2 2---2-- --2-2-- 2------|
B|5-----5-5---5-----4-4---4------|2-----2-2---2-----4-4---4------|
G|4-----4-4---4-----4-4---4------|2-----2-2---2-----4-4---4------|
D|6-----6-6---6-----6-6---6------|4-----4-4---4-----4-4---4------|
A|7-----7-7---7-----6-6---6------|4-----4-4---4-----2-2---2------|
E|-------------------------------|-------------------------------|
      we  just can't see his  face                        In this

  A                 F#m           E                 C#m
e|0-----0 0---0-- --2-2-- 2------|4-----4 4---4-- --4-4-- 4------|
B|2-----2-2---2-----2-2---2------|5-----5-5---5-----5-5---5------|
G|2-----2-2---2-----2-2---2------|4-----4-4---4-----6-6---6------|
D|2-----2-2---2-----4-4---4------|6-----6-6---6-----6-6---6------|
A|0-----0-0---0-----4-4---4------|7-----7-7---------4-4---4------|
E|-------------------------------|------------7------------------|
world there's nothibg I would rather do                  'cause I'm

  A                 B             C#m
e|0-----0 0---0-- --2-2-- 2------|4------ ----4-- --4-4-- 4------|
B|2-----2-2---2-----4-4---4------|5-----------5-----5-5---5------|
G|2-----2-2---2-----4-4---4------|6-----------6-----6-6---6------|
D|2-----2-2---2-----4-4---4------|6-----------6-----6-6---6------|
A|0-----0-0---0-----2-2---2------|4-----------4-----4-4---4------|
E|-------------------------------|-------------------------------|
  happy   just to dance      with you                     Just to
                  Baug5
e|------- ------- 3------ -------|------- ------- ------- -------|
B|----------------4--------------|-------------------------------|
G|----------------4--------------|-------------------------------|
D|----------------5--------------|-------------------------------|

  

                                  F#m         Ab
e|4------ ----4-- ------- 4------|2------ ----4-- ----4-- 4------|
B|5-----------5-----------5------|2-----------4-------4---4------|
G|6-----------6-----------6------|2-----------5-------5---5------|
D|6-----------6-----------6------|4-----------6-------6---6------|
A|4-----------4-----------4------|4-----------6-------6---6------|
E|-------------------------------|2-----------4-------4---4------|
  dance      with you                                         is

  C#m                             F#m         Ab
e|4------ ----4-- ------- 4------|2------ ----4-- ----4-- 4------|
B|5-----------5-----------5------|2-----------4-------4---4------|
G|6-----------6-----------6------|2-----------5-------5---5------|
D|6-----------6-----------6------|4-----------6-------6---6------|
A|4-----------4-----------4------|4-----------6-------6---6------|
E|-------------------------------|2-----------4-------4---4------|
  everything              I       need                Before this 

  C#m                             F#m         Ab
e|4------ ----4-- ----4-- 4------|2------ ----4-- ----4-- 4------|
B|5-----------5-------5---5------|2-----------4-------4---4------|
G|6-----------6-------6---6------|2-----------5-------5---5------|
D|6-----------6-------6---6------|4-----------6-------6---6------|
A|4-----------4-------4---4------|4-----------6-------6---6------|
E|-------------------------------|2-----------4-------4---4------|
  dance  is  through  I think I'll love you too           I'm so


  A6          B6                  E           B
e|2------ ----4-- ------- 4------|4------ ----2-- --2-2-- 2------|
B|2-----------4-----------4------|5-----------4-----4-4---4------|
G|2-----------4-----------4------|4-----------4-----4-4---4------|
D|2-----------4-----------4------|6-----------4-----4-4---4------|
A|0-----------2-----------2------|7-----------2-----2-2---2------|
E|-------------------------------|-------------------------------|
  happy when you  dance      with me                      If somebody

  E                 Abm           F#m               B              
e|4-----4 4---4-- --4-4-- 4------|2-----2 2---2-- --2-2-- 2------|
B|5-----5-5---5-----4-4---4------|2-----2-2---2-----4-4---4------|
G|4-----4-4---4-----4-4---4------|2-----2-2---2-----4-4---4------|
D|6-----6-6---6-----6-6---6------|4-----4-4---4-----4-4---4------|
A|7-----7-7---7-----6-6---6------|4-----4-4---4-----2-2---2------|
E|-------------------------------|-------------------------------|
          tries to take my    place                       Let's pretend

  E                 Abm           F#m               B
e|4-----4 4---4-- --4-4-- 4------|2-----2 2---2-- --2-2-- 2------|
B|5-----5-5---5-----4-4---4------|2-----2-2---2-----4-4---4------|
G|4-----4-4---4-----4-4---4------|2-----2-2---2-----4-4---4------|
D|6-----6-6---6-----6-6---6------|4-----4-4---4-----4-4---4------|
A|7-----7-7---7-----6-6---6------|4-----4-4---4-----2-2---2------|
E|-------------------------------|-------------------------------|
      we  just can't see his  face                        In this

  A                 F#m           E                 Abm
e|0-----0 0---0-- --2-2-- 2------|4-----4 4---4-- --4-4-- 4------|
B|2-----2-2---2-----2-2---2------|5-----5-5---5-----5-5---5------|
G|2-----2-2---2-----2-2---2------|4-----4-4---4-----6-6---6------|
D|2-----2-2---2-----4-4---4------|6-----6-6---6-----6-6---6------|
A|0-----0-0---0-----4-4---4------|7-----7-7---------4-4---4------|
E|-------------------------------|------------7------------------|
world there's nothibg I would rather do                  I discovered

  A                 Baug5         C#m
e|0-----0 0---0-- --3-3-- 3------|4------ ----4-- ------- 4------|          
B|2-----2-2---2-----4-4---4------|5-----------5-----------5------|
G|2-----2-2---2-----4-4---4------|6-----------6-----------6------|
D|2-----2-2---2-----5-5---5------|6-----------6-----------6------|
A|0-----0-0---0------------------|4-----------4-----------4------|
E|-------------------------------|-------------------------------|
          I'm  in love       with you                    'cause I'm                   

  A               Baug5           C#m
e|0------ ------- 3------ 3------|4------ ----4-- --4-4-- 4------|
B|2---------------4-------4------|5-----------5-----5-5---5------|
G|2---------------4-------4------|6-----------6-----6-6---6------|
D|2---------------5-------5------|6-----------6-----6-6---6------|
A|0------------------------------|4-----------4-----4-4---4------|
E|-------------------------------|-------------------------------|
  happy   just to dance      with you


  F#m         Ab                  A6          B6
e|2------ ----4-- ------- -------|5------ ----7-- ----7-- 7------|
B|2-----------4------------------|7-----------9-------9---9------|
G|2-----------5------------------|6-----------8-------8---8------|
D|4-----------6------------------|7-----------9-------9---9------|
A|4-----------6------------------|0------------------------------|
E|2-----------4------------------|------------7-------7---7------|

  (.
  E
e|9------ ------- ------- -------|------- ------- ------- -------|
B|9------------------------------|-------------------------------|
G|9------------------------------|-------------------------------|
D|9------------------------------|-------------------------------|
A|7------------------------------|-------------------------------|
E|-------------------------------|-------------------------------|


        B  Bend
        R  Release
        /  slide up
        \  slide down
        H  hammer-on
        P  pull-off
        ~  vibrato
        +  harmonic
        x  Mute note
        . - play note like a dot in standard notation
        ^ - ties two notes together
Comments