Beatles - Im Happy Just To Dance With You Chords & Tabs

 

Im Happy Just To Dance With You Chords & Tabs

Beatles Chords & Tabs

Version: 3 Type: Bass Tab 0 ratings
1 star 2 stars 3 stars 4 stars 5 stars
comments

Im Happy Just To Dance With You Bass Tab

IíM HAPPY JUST TO DANCE WITH YOU

Written by John Lennon

INTRO

G|---------------------------------|---------------------------------|
D|---------------------------------|---------------------------------|
A|-4-----------4-------2-----------|-------------------------2-------|
E|-------------------------4-------|-2-----------4-------4-------4---|

G|---------------------------------|---------------------------------|
D|---------------------------------|---------------------------------|
A|-4-----------4-------2-----------|-------------------------2-------|
E|-------------------------4---0---|-2-----------4-------4-------4---|

PRE-VERSE

G|---------------------------------|---------------------------------|
D|---------------------------------|---------------------------------|
A|-4-----------4-------2-----------|---------------------------------|
E|-------------------------4---0---|-2-----------4-----------4---4---|

G|---------------------------------|---------------------------------|
D|-----------------------------1---|-2---2---2---2---------------1---|
A|-0---0---0---2---2---2---4-------|-----------------2---2---4-------|
E|---------------------------------|---------------------------------|

VERSE

G|---------------------------------|---------------------------------|
D|-2---2---4---2---6-------5-------|-4---4---6-------------------1---|
A|---------------------------------|-------------0---2---2---4-------|
E|---------------------------------|---------------------------------|

G|---------------------------------|---------------------------------|
D|-2---2---4---2---6-------5-------|-4---4---6-----------------------|
A|---------------------------------|-------------0---2---2---4---2---|
E|---------------------------------|---------------------------------|

G|---------------------------------|---------------------------------|
D|---------------------------------|-2---2---2-----------------------|
A|-0---0---0---0---4---4---4---2---|-------------2---4---4---4---2---|
E|---------------------------------|---------------------------------|

G|---------------------------------|---------------------------------|
D|---------------------------------|-2---2-----------------------1---|
A|-0---0---0---0---2---2---2---2---|---------2---2---2---2---4-------|
E|---------------------------------|---------------------------------|

VERSE

G|---------------------------------|---------------------------------|
D|-2---2---4---2---6-------5-------|-4---4---6-------------------1---|
A|---------------------------------|-------------0---2-------4-------|
E|---------------------------------|---------------------------------|

G|---------------------------------|---------------------------------|
D|-2---2---4---2---6-------5-------|-4---4---6-----------------------|
A|---------------------------------|-------------0---2-------4---2---|
E|---------------------------------|---------------------------------|

G|---------------------------------|---------------------------------|
D|---------------------------------|-2---2---2-----------------------|
A|-0---0---0---0---4---4---4---2---|-------------2---4---4---4---2---|
E|---------------------------------|---------------------------------|

G|---------------------------------|---------------------------------|
D|---------------------------------|-2---2---2---2---2---------------|
A|-0---0---0---0---2---2---2---2---|---------------------2---4---2---|
E|---------------------------------|---------------------------------|

BRIDGE

G|---------------------------------|---------------------------------|
D|---------------------------------|---------------------------------|
A|-4-----------4-------2-----------|-------------------------2-------|
E|-------------------------4---0---|-2-----------4-------4-------4---|

G|---------------------------------|---------------------------------|
D|---------------------------------|---------------------------------|
A|-4-------2---4-------2-----------|-------------------------2-------|
E|-------------------------4---0---|-2-----------4---------------4---|

G|---------------------------------|---------------------------------|
D|---------------------------------|---------------------------------|
A|-4-------2---4-------2-----------|---------------------------------|
E|-------------------------4---0---|-2-----------4-----------4---4---|
[ Tab from: http://www.guitartabs.cc/tabs/b/beatles/im_happy_just_to_dance_with_you_btab_ver_3.html ]
G|---------------------------------|---------------------------------|
D|-----------------------------1---|-2---------------------------1---|
A|-0---0---0---2---2---2---4-------|-----2---2---2---2---2---4-------|
E|---------------------------------|---------------------------------|

VERSE

G|---------------------------------|---------------------------------|
D|-2---2---4---2---6-------5-------|-4---4---6-------------------1---|
A|---------------------------------|-------------0---2---2---4-------|
E|---------------------------------|---------------------------------|

G|---------------------------------|---------------------------------|
D|-2---2---4---2---6-------5-------|-4---4---6-----------------------|
A|---------------------------------|-------------0---2---2---4---2---|
E|---------------------------------|---------------------------------|

G|---------------------------------|---------------------------------|
D|---------------------------------|-2---2---2-----------------------|
A|-0---0---0---0---4---4---4---2---|-------------2---4---4---4---2---|
E|---------------------------------|---------------------------------|

G|---------------------------------|-----------------------------4---|
D|---------------------------------|-2-------2---------------2-------|
A|-0---0---0---0---2---2---2---2---|-------------2---2---2-----------|
E|---------------------------------|---------------------------------|

BRIDGE

G|---------------------------------|---------------------------------|
D|---------------------------------|---------------------------------|
A|-4-----------4-------2-----------|---------------------------------|
E|-------------------------4---0---|-2---2---2---4---4---4---2---4---|

G|---------------------------------|---------------------------------|
D|---------------------------------|---------------------------------|
A|-4-----------4-------2-----------|-------------------------2-------|
E|-------------------------4---0---|-2-----------4-------4-----------|

G|---------------------------------|---------------------------------|
D|---------------------------------|---------------------------------|
A|-4-------2---4-------2-----------|---------------------------------|
E|-------------------------4---0---|-2-----------4-----------4---4---|

G|---------------------------------|---------------------------------|
D|-----------------------------1---|-2---------------------------1---|
A|-0---0---0---2---2---2---4-------|---------2---2---2---2---4-------|
E|---------------------------------|---------------------------------|

VERSE

G|---------------------------------|---------------------------------|
D|-2---2---4---2---6-------5-------|-4-------6---4---------------1---|
A|---------------------------------|-----------------2-------4-------|
E|---------------------------------|---------------------------------|

G|---------------------------------|---------------------------------|
D|-2---2---4---2---6-------5-------|-4-------6---4-------------------|
A|---------------------------------|-----------------2-------4---2---|
E|---------------------------------|---------------------------------|

G|---------------------------------|---------------------------------|
D|---------------------------------|-2---2---2-----------------------|
A|-0---0---0---0---4---4---4---2---|-------------2---4---4---4---2---|
E|---------------------------------|---------------------------------|

G|---------------------------------|---------------------------------|
D|---------------------------------|---------------------------------|
A|-0---0---0---0---2---2---2---0---|-4-----------4-------2-----------|
E|---------------------------------|-------------------------4---0---|

G|---------------------------------|---------------------------------|
D|---------------------------------|---------------------------------|
A|---------------------------------|-0---0---0---0---2---2---2---0---|
E|-2-------2---4---4---4---2---4---|---------------------------------|

G|---------------------------------|---------------------------------|
D|---------------------------------|---------------------------------|
A|-4-----------4-------2-----------|---------------------------------|
E|-------------------------4---0---|-2-----------4-------4---2---4---|

G|---------------------------------|---------------------------------|
D|---------------------------------|-2-------------------------------|
A|-0-----------2-------2---4-------|---------------------------------|
E|---------------------------------|---------------------------------|
Comments