Beatles - Ill Get You Chords & Tabs

 

Ill Get You Chords & Tabs

Beatles Chords & Tabs

Version: 1 Type: Tab 0 ratings
1 star 2 stars 3 stars 4 stars 5 stars
comments

Ill Get You Tab

   
-------------------------------------------------------------------------
  THE BEATLES - I'LL GET YOU (Lennon/McCartney) Released as the B side of 
                SHE LOVES YOU single on 23rd August 1963.
-------------------------------------------------------------------------
  Tabbed by:PJVillanueva



Oh yeh, oh yeh.
Imagine, I'm in love with you,
It's easy 'cause I know,
I've imagined, I'm in love with you,
Many, many, many times before.

It's not like me to pretend,
But I'll get you, I'll get you in the end,
Yes I will, I'll get you in the end, oh yeh, oh yeh.

I think about you night and day,
I need you 'cos it's true.
When I think about you, I can say,
I'm never, never, never, never blue.

So I'm telling you, my friend,
That I'll get you, I'll get you in the end,
Yes I will, I'll get you in the end, oh yeh, oh yeh.

Well, there's gonna be a time,
Well I'm gonna change your mind.
So you might as well resign yourself to me, oh yeh.

Imagine, I'm in love with you,
It's easy 'cos I know,
I've imagined, I'm in love with you,
Many, many, many times before.

It's not like me to pretend,
But I'll get you, I'll get you in the end,
Yes I will, I'll get you in the end,
Oh yeh, oh yeh.


e|------- ------- ------- -------|------- ------- ------- -------|
B|-------------------------------|-------------------------------|
G|-------------------------------|--------------------2---0------|
D|-------------------------------|----------------------------3--|
A|-------------------------------|-------------------------------|
E|-------------------------------|-------------------------------|
                                                          Oh

  D                               A
e|------- ------- ------- -------|------- ------- ------- -------|
B|-------------------------------|-------------------------------|
G|-------------------------------|-------------------------------|
D|0-----------0---0--------------|-------------------------------|
A|-------------------------------|0-----------0---0--------------|
E|-------------------------------|-------------------------------|
  yeh,                    oh      yeh.                    Oh

  D                               A
e|------- ------- ------- -------|------- ------- ------- -------|
B|-------------------------------|-------------------------------|
G|-------------------------------|-------------------------------|
D|0-----------0---0--------------|-------------------------------|
A|-------------------------------|0-----------0---0--------------|
E|-------------------------------|-------------------------------|
  yeh,                    oh      yeh                         I..
 
  D
e|------- ------- ------- -------|------- ------- ------- -------|
B|-------------------------------|-------------------------------|
G|-------------------------------|-------------------------------|
D|7---7---9-------7-------9---7--|----7---9-------7-------9---7--|
A|5---5---5-------5-------5---5--|----5---5-------5-------5---5--|
E|-------------------------------|-------------------------------|
  magine          I'm         in  love       with you         It's

  G                               A
e|------- ------- ------- -------|------- ------- ------- -------|
B|-------------------------------|-------------------------------|
G|-------------------------------|-------------------------------|
D|-------------------------------|-------------------------------|
A|----5---7-------5-------7---5--|----7---9-------7-------9---7--|
E|----3---3-------3-------3---3--|----5---5-------5-------5---5--|
  easy                   'cause I know,                   I've i..

  D                               Bm
e|------- ------- ------- -------|------- ------- ------- -------|
B|-------------------------------|-------------------------------|
G|-------------------------------|-------------------------------|
D|----7---9-------7-------9---7--|----9---9-------9-------9------|
A|----5---5-------5-------5---5--|----9---9-------9-------9------|
E|-------------------------------|----7---7-------7-------7------|
  magined         I'm         in  love       with you

  G                               A
e|------- ------- ------- -------|------- ------- ------- -------|
B|-------------------------------|-------------------------------|
G|-------------------------------|-------------------------------|
D|-------------------------------|-------------------------------|
A|----5---7-------5-------7---5--|----7---9-------7-------9---7--|
E|----3---3-------3-------3---3--|----5---5-------5-------5---5--|
  many,      many,many  times before.                     It's not        

  D                               Am
e|------- ------- ------- -------|------- ------- ------- -------|
B|-------------------------------|-------------------------------|
G|-------------------------------|-------------------------------|
D|----7---7-----------7-------7--|---7----7-------7---7----------|
A|----5---5-----------5-------5--|---7----7-------7---7----------|
E|-------------------------------|---5----5-------5---5----------|
  like me                 to  pretend,                    but I'll

  D                               Bm
e|------- ------- ------- -------|------- ------- ------- -------|
B|-------------------------------|-------------------------------|
G|-------------------------------|-------------------------------|
D|----7---9-------7-------9---7--|----9---9-----------9---9------|
A|----5---5-------5-------5---5--|----9---9-----------9---9------|
E|-------------------------------|----7---7-----------7---7------|
  get you    I'll get you in  the end.                    Yes, I

  G                               A
e|------- ------- ------- -------|------- ------- ------- -------|
B|-------------------------------|-------------------------------|
G|-------------------------------|-------------------------------|
D|-------------------------------|-------------------------------|
A|----5---7-------5-------7---5--|----7---9-------7-------7---7--|
E|----3---3-------3-------3---3--|----5---5-------5-------5---5--|
  will       I'll get you in  the end,                    oh                     

  D                               A
e|------- ------- ------- -------|------- ------- ------- -------|
B|-------------------------------|-------------------------------|
G|-------------------------------|-------------------------------|
D|----7---9-------7-------9---7--|-------------------------------|
A|----5---5-------5-------5---5--|----7---9-------7--------------|
E|-------------------------------|----5---5-------5--------------|
  yeh,                    oh      yeh                         I

  D
e|------- ------- ------- -------|------- ------- ------- -------|
B|-------------------------------|-------------------------------|
G|-------------------------------|-------------------------------|
D|7-------9-------7-------9---7--|----7---9---7---7-------9---7--|
A|5-------5-------5-------5---5--|----5---5---5---5-------5---5--|
E|-------------------------------|-------------------------------|
  think       about           you night       and day,        I

  G                               A
e|------- ------- ------- -------|------- ------- ------- -------|
B|-------------------------------|-------------------------------|
G|-------------------------------|-------------------------------|
D|-------------------------------|-------------------------------|
A|----5---5-------5-------5---5--|----7---9-------7-------9---7--|
E|----3---3-------3-------3---3--|----5---5-------5-------5---5--|
  need              you   and it's true.                  when I

  D                               Bm
e|------- ------- ------- -------|------- ------- ------- -------|
B|-------------------------------|-------------------------------|
G|-------------------------------|-------------------------------|
D|----7---9-------7-----------7--|-------------------------------|
A|----5---5-------5-----------5--|----9-------9-----------9------|
E|-------------------------------|----7-------7-----------7------|
  think   about           you     I           can say,        I'm

  G                               A
e|------- ------- ------- -------|------- ------- ------- -------|
B|-------------------------------|-------------------------------|
G|-------------------------------|-------------------------------|
D|-------------------------------|-------------------------------|
A|----5---7-------5-------7---5--|7---7---9---7---7---7---7------|
E|----3---3-------3-------3---3--|5---5---5---5---5---5---5------|
  never,    never,never,never blue                        So  I'm         
[ Tab from: http://www.guitartabs.cc/tabs/b/beatles/ill_get_you_tab.html ]
  D                               Am
e|------- ------- ------- -------|------- ------- ------- -------|
B|-------------------------------|-------------------------------|
G|7---7---7-------7---7---7------|-------------------------------|
D|7---7---7-------7---7---7------|---7--------7---7---7---7------|
A|5---5---5-------5---5---5------|---7--------7---7---7---7------|
E|-------------------------------|---5--------5---5---5---7------|
  telling                 you,my  friend                  that I'll

  D                               Bm
e|------- ------- ------- -------|------- ------- ------- -------|
B|-------------------------------|-------------------------------|
G|-------------------------------|-------------------------------|
D|----7---9-------7-------9---7--|----9---9-----------9---9------|
A|----5---5-------5-------5---5--|----9---9-----------9---9------|
E|-------------------------------|----7---7-----------7---7------|
  get you    I'll get you in  the end.                    Yes, I

  G                               A
e|------- ------- ------- -------|------- ------- ------- -------|
B|-------------------------------|-------------------------------|
G|-------------------------------|-------------------------------|
D|5---5---7-------5-------7---5--|7---7---9-------7---7---9------|
A|5---5---5-------5-------5---5--|7---7---7-------7---7---7------|
E|3---3---3-------3-------3---3--|5---5---5-------5---5---5------|
  will       I'll get you in  the end,                    oh                     

  D                               A
e|------- ------- ------- -------|------- ------- ------- -------|
B|-------------------------------|-------------------------------|
G|-------------------------------|-------------------------------|
D|----7---9-------7---7---9------|-------------------------------|
A|----5---5-------5---5---5------|7---7---9---7---7---7---9------|
E|-------------------------------|5---5---5---5---5---5---5------|
  yeh,                    oh      yeh                    Well, there's

  G
e|------- ------- ------- -------|------- ------- ------- -------|
B|-------------------------------|-------------------------------|
G|-------------------------------|-------------------------------|
D|-------------------------------|-------------------------------|
A|5---5---7-------5---5---7---5--|----5---7-------5---5---7---5--|
E|3---3---3-------3---3---3---3--|----3---3-------3---3---3---3--|
  gonna           be          a   time,                  Well, I'm

  D
e|------- ------- ------- -------|------- ------- ------- -------|
B|-------------------------------|-------------------------------|
G|-------------------------------|-------------------------------|
D|7---7---9-------7---7---9---7--|--------9---7---7---7---9------|
A|5---5---5-------5---5---5---5--|--------5---5---5---5---5------|
E|-------------------------------|-------------------------------|
  gonna       change         your mind,                   so you

  E
e|------- ------- ------- -------|------- ------- ------- -------|
B|-------------------------------|-------------------------------|
G|-------------------------------|-------------------------------|
D|2-----------2---2-----------2--|2-----------2---2-----------2--|
A|2-----------2---2-----------2--|2-----------2---2-----------2--|
E|0-----------0---0-----------0--|0-----------0---0-----------0--|
  might       as  well        resign          yourself        to   

  A
e|------- ------- ------- -------|------- ------- ------- -------|
B|-------------------------------|-------------------------------|
G|-------------------------------|-------------------------------|
D|7-------7---7---7---7---7------|7-------7---7---7---7---7------|
A|7-------7---7---7---7---7------|7-------7---7---7---7---7------|
E|5-------5---5---5---5---5------|5-------5---5---5---5---5------| 
  me,                     oh      yeh

  D
e|------- ------- ------- -------|------- ------- ------- -------|
B|-------------------------------|-------------------------------|
G|-------------------------------|-------------------------------|
D|7---7---9-------7-------9---7--|----7---9-------7-------9---7--|
A|5---5---5-------5-------5---5--|----5---5-------5-------5---5--|
E|-------------------------------|-------------------------------|
  magine          I'm         in  love       with you         It's

  G                               A
e|------- ------- ------- -------|------- ------- ------- -------|
B|-------------------------------|-------------------------------|
G|-------------------------------|-------------------------------|
D|----5---5-------5-------5---5--|----7---7-------7-------7------|
A|----5---5-------5-------5---5--|----7---7-------7-------7------|
E|----3---3-------3-------3---3--|----5---5-------5-------5------|
  easy                   'cause I know,                   I've i..

  D                               Bm
e|------- ------- ------- -------|------- ------- ------- -------|
B|-------------------------------|-------------------------------|
G|-------------------------------|-------------------------------|
D|----7---9-------7-------9---7--|----9-------9---9-------9------|
A|----5---5-------5-------5---5--|----9-------9---9-------9------|
E|-------------------------------|----7-------7---7-------7------|
  magined         I'm         in  love       with you

  G                               A
e|------- ------- ------- -------|------- ------- ------- -------|
B|-------------------------------|-------------------------------|
G|-------------------------------|-------------------------------|
D|-------------------------------|-------------------------------|
A|5---5---7-------5-------7---5--|----7---9---7---7---7---9---7--|
E|3---3---3-------3-------3---3--|----5---5---5---5---5---5---5--|
  many,      many,many  times before.                     It's not        

  D                               Am
e|------- ------- ------- -------|------- ------- ------- -------|
B|-------------------------------|-------------------------------|
G|-------------------------------|-------------------------------|
D|7---7---7-------7---7---7---7--|7---7---7---7---7---7---7------|
A|5---5---5-------5---5---5---5--|7---7---7---7---7---7---7------|
E|-------------------------------|5---5---5---5---5---5---5------|
  like me                 to  pretend,                    but I'll

  D                               Bm
e|------- ------- ------- -------|------- ------- ------- -------|
B|-------------------------------|-------------------------------|
G|-------------------------------|-------------------------------|
D|----7---9-------7-------9---7--|----9---9---------------9------|
A|----5---5-------5-------5---5--|----9---9---------------9------|
E|-------------------------------|----7---7---------------7------|
  get you    I'll get you in  the end.                    Yes, I

  G                               A
e|------- ------- ------- -------|------- ------- ------- -------|
B|-------------------------------|-------------------------------|
G|-------------------------------|-------------------------------|
D|-------------------------------|-------------------------------|
A|5---5---7-------5-------7---5--|7---7---7-------7---7---9---7--|
E|3---3---3-------3-------3---3--|5---5---5-------5---5---5---5--|
  will       I'll get you in  the end,                    oh                     

  D                               A
e|------- ------- ------- -------|------- ------- ------- -------|
B|-------------------------------|-------------------------------|
G|-------------------------------|-------------------------------|
D|----7---9-------7-------9---7--|-------------------------------|
A|----5---5-------5-------5---5--|----7---9-------7-----------7--|
E|-------------------------------|----5---5-------5-----------5--|
  yeh,                    oh      yeh                         

  D                               A
e|------- ------- ------- -------|------- ------- ------- -------|
B|-------------------------------|-------------------------------|
G|-------------------------------|-------------------------------|
D|----7---9-------7-------9---7--|-------------------------------|
A|----5---5-------5-------5---5--|----7---9-------7--------------|
E|-------------------------------|----5---5-------5--------------|
  yeh,                    oh      yeh,                    oh

 (.
  D
e|------- ------- ------- -------|------- ------- ------- -------|
B|7------------------------------|-------------------------------|
G|7------------------------------|-------------------------------|
D|7------------------------------|-------------------------------|
A|5------------------------------|-------------------------------|
E|-------------------------------|-------------------------------|


        B  Bend
        R  Release
        /  slide up
        \  slide down
        H  hammer-on
        P  pull-off
        ~  vibrato
        +  harmonic
        x  Mute note
        . - play note like a dot in standard notation
        ^ - ties two notes together
        (. Pause
Comments