Beatles - Ill Get You Live At The Bbc Chords & Tabs

 

Ill Get You Live At The Bbc Chords & Tabs

Beatles Chords & Tabs

Version: 2 Type: Bass Tab 0 ratings
1 star 2 stars 3 stars 4 stars 5 stars
comments

Ill Get You Live At The Bbc Bass Tab

IíLL GET YOU

Pop Go The Beatles #12 (Sept. 3, 1963)

INTRO
  t=127
G|---------------------------------|---------------------------------|
D|---------------------------------|---------------------9---7---6---|
A|---------------------------------|---------------------------------|
E|---------------------------------|---------------------------------|

G|---------------------------------|---------------------------------|
D|---------------------------------|-9-----------9---9-------9-------|
A|-7-----------7---7---------------|---------------------------------|
E|---------------------------------|---------------------------------|

G|---------------------------------|---------------------------------|
D|---------------------------------|-9-----------9---9-------9-------|
A|-7-----------7---7-------7-------|---------------------------------|
E|---------------------------------|---------------------------------|

VERSE

G|---------------------------------|---------------------------------|
D|-----------------9---------------|-----------------9---------------|
A|-7-----------7---------------6---|-7-----------7---------------7---|
E|---------------------------------|---------------------------------|

G|---------------------------------|---------------------------------|
D|-7-----------7---------------7---|-9-----------9-------------------|
A|-----------------7---------------|-----------------9---------------|
E|---------------------------------|---------------------------------|

G|---------------------------------|---------------------------------|
D|-----------------9---9---6---9---|-----------------11--------------|
A|-7-----------7-------------------|---------------------------------|
E|---------------------------------|-9-----------9-------------------|

G|---------------------------------|---------------------------------|
D|-7-----------7-----------7-------|-9-----------9-----------9-------|
A|-----------------7---------------|-----------------9---------------|
E|---------------------------------|---------------------------------|

G|---------------------------------|---------------------------------|
D|---------------------------------|-9---9---9---9---9---9---9---9---|
A|-7---7---7---7---7---7---7---7---|---------------------------------|
E|---------------------------------|---------------------------------|

G|---------------------------------|---------------------------------|
D|-------------6---9-------6---9---|-----------------11--------------|
A|-7-------------------------------|-------------------------11------|
E|---------------------------------|-9-----------9-------------------|

G|---------------------------------|---------------------------------|
D|-7-----------7-----------7-------|-9-----------9-----------9-------|
A|-----------------7---------------|-----------------9---------------|
E|---------------------------------|---------------------------------|

G|---------------------------------|---------------------------------|
D|-----------------9-------6-------|---------------------------------|
A|-7-----------7-------------------|-----------------9---------------|
E|---------------------------------|-7-----------7-----------7-------|

VERSE

G|---------------------------------|---------------------------------|
D|-----------------9---------------|-----------------9---------------|
A|-7-----------7---------------6---|-7-----------7-----------7-------|
E|---------------------------------|---------------------------------|

G|---------------------------------|---------------------------------|
D|-7-----------7-----------7-------|-9-----------9-----------9-------|
A|-----------------7---------------|-----------------9---------------|
E|---------------------------------|---------------------------------|

G|---------------------------------|---------------------------------|
D|-------------6---9-------6---9---|-----------------11--------------|
A|-7-------------------------------|-------------------------11------|
E|---------------------------------|-9-----------9-------------------|

G|---------------------------------|---------------------------------|
D|-7-----------7-----------7-------|-9-----------9-----------9-------|
A|-----------------7---------------|-----------------9---------------|
E|---------------------------------|---------------------------------|

G|---------------------------------|---------------------------------|
D|---------------------------------|-9---9---9---9---9---9---9---9---|
A|-7---7---7---7---7---7---7---7---|---------------------------------|
E|---------------------------------|---------------------------------|
[ Tab from: http://www.guitartabs.cc/tabs/b/beatles/ill_get_you_live_at_the_bbc_btab_ver_2.html ]
G|---------------------------------|---------------------------------|
D|-------------6---9-------6---9---|-----------------11--------------|
A|-7-------------------------------|-------------------------11------|
E|---------------------------------|-9-----------9-------------------|

G|---------------------------------|---------------------------------|
D|-7-----------7-----------7-------|-9-----------9-----------9-------|
A|-----------------7---------------|-----------------9---------------|
E|---------------------------------|---------------------------------|

G|---------------------------------|---------------------------------|
D|-------------6---9-------6-------|-9-----------9---9-------9-------|
A|-7-------------------------------|---------------------------------|
E|---------------------------------|---------------------------------|

BRIDGE

G|---------------------------------|---------------------------------|
D|-7-----------7---------------6---|-7-----------7-----------7-------|
A|-----------------7---------------|-----------------7---------------|
E|---------------------------------|---------------------------------|

G|---------------------------------|---------------------------------|
D|-----------------9---------------|-----------------9---------------|
A|-7-----------7---------------6---|-7-----------7-----------7-------|
E|---------------------------------|---------------------------------|

G|---------------------------------|---------------------------------|
D|-----------------11--------------|-----------------11--------------|
A|-9-----------9---------------8---|-9-----------9-----------9-------|
E|---------------------------------|---------------------------------|

G|---------------------------------|---------------------------------|
D|-9-------9---9---9---9---9-------|-9---9---7---7---6---6-----------|
A|---------------------------------|-------------------------9---9---|
E|---------------------------------|---------------------------------|

VERSE

G|---------------------------------|---------------------------------|
D|-----------------9---------------|-----------------9---------------|
A|-7-----------7---------------6---|-7-----------7-------------------|
E|---------------------------------|---------------------------------|

G|---------------------------------|---------------------------------|
D|-7-----------7-----------7-------|-9-----------9-------------------|
A|-----------------7---------------|-----------------9---------------|
E|---------------------------------|---------------------------------|

G|---------------------------------|---------------------------------|
D|-------------6---9-------6---9---|-----------------11--------------|
A|-7-------------------------------|-------------------------11------|
E|---------------------------------|-9-----------9-------------------|

G|---------------------------------|---------------------------------|
D|-7-----------7-----------7-------|-9-----------9-------------------|
A|-----------------7---------------|-----------------9---------------|
E|---------------------------------|---------------------------------|

G|---------------------------------|---------------------------------|
D|---------------------------------|-9---9---9---9---9---9---9---9---|
A|-7---7---7---7---7---7---7---7---|---------------------------------|
E|---------------------------------|---------------------------------|

G|---------------------------------|---------------------------------|
D|-------------6---9-------6---9---|-----------------11--------------|
A|-7-------------------------------|---------------------------------|
E|---------------------------------|-9-----------9-------------------|

G|---------------------------------|---------------------------------|
D|-7-------------------------------|-9-----------9-------------------|
A|-------------4---7-------4-------|-----------------9-------6-------|
E|---------------------------------|---------------------------------|

G|---------------------------------|---------------------------------|
D|-------------6---9-------6-------|-9-----------9---9---------------|
A|-7-------------------------------|---------------------------------|
E|---------------------------------|---------------------------------|

G|---------------------------------|---------------------------------|
D|-------------6---9-------6-------|-9-----------9---9---------------|
A|-7-------------------------------|---------------------------------|
E|---------------------------------|---------------------------------|

G|---------------------------------|
D|---------------------------------|
A|-7-------------------------------|
E|---------------------------------|
Comments