Beatles - I Want To Tell You Chords & Tabs

 

I Want To Tell You Chords & Tabs

Beatles Chords & Tabs

Version: 5 Type: Chords 0 ratings
1 star 2 stars 3 stars 4 stars 5 stars
comments

I Want To Tell You Chords

   
---------------------------------------------------------------------------
                I Want to Tell You - The Beatles
---------------------------------------------------------------------------
Tabbed by: maguri
Tuning: Standard

The Beatles
I Want To Tell You (1966)
(Harrison)

From: "Revolver"


---------------------------------------------------------------------------
CHORDS

        e-B-G-D-A-e
A       0-2-2-2-0-x
B       2-4-4-4-2-x
e(b9)   1-0-1-2-2-0
e       0-0-1-2-2-0
Bm      x-3-4-4-2-x
Bdim    x-3-4-3-2-x
Asus4   0-3-2-2-0-x

---------------------------------------------------------------------------

INTRO /
RIFF (first two bars only)

 [A]              [G/A]     [D/A]  [A]              [G/A]     [D/A]
e|----------------|----------------|----------------|----------------|
B|----------------|----------------|----------------|----------------|
G|--2-------------|0---------------|--2-------------|0---------------|
D|----5---2-------|--0-------4-----|----5---2-------|--0-------4-----|
A|0-----0-------0-|----0-------5-0-|------0-------0-|----0-------5-0-|
E|----------------|----------------|----------------|----------------|
                  [triplet]                         [triplet]

VERSE

 *e(b9)
e|1-0-1-0-1-0-1-0-|----------------|----------------|----------------|
B|0-0-0-0-0-0-0-0-|----------------|----------------|----------------|
G|1-1-1-1-1-1-1-1-|-------%--------|--------%-------|--------%-------|
D|2-2-2-2-2-2-2-2-|----------------|----------------|----------------|
A|2---------------|----------------|----------------|----------------|
E|0---------------|----------------|----------------|----------------|


[ Tab from: http://www.guitartabs.cc/tabs/b/beatles/i_want_to_tell_you_crd_ver_5.html ]
INTRO
| A | G/A D/A |
| A | G/A D/A |

A
  I want to tell you
A                        B  
  My head is filled with things to say
*e(b9)
  When you're here, all those words
             A              [G/A   D/A]
They seem to slip away
            [RIFF]

A
  When I get near you
A                    B
  The games begin to drag me down
*e(b9)
  It's alright, I'll make you maybe 
     A              [G/A   D/A]
Next time around
     [RIFF]


Bm         Bdim          A 
  But if I seem to act unkind
          B               Bm
It's only me, it's not my mind
Bdim        A      Asus4 [break]
 That is confusing things


A
  I want to tell you 
A                      B
  I feel hung up and I don't know why
*e(b9)
  I don't mind, I could wait forever
A              [G/A   D/A]
I've got time
[RIFF]


Bm            Bdim            A 
  Sometimes I wish I knew you well
             B                 Bm
Then I could speak my mind and tell you
Bdim         A    Asus4 [break]
 Maybe you'd understand.


A
  I want to tell you 
A                      B
  I feel hung up and I don't know why
*e(b9)
  I don't mind, I could wait forever
A              [G/A   D/A]
I've got time
[RIFF]

A              [G/A   D/A]
(no vocals)
[RIFF]

A              [G/A   D/A]
I've got time
[RIFF]
A              [G/A   D/A]
I've got time
[RIFF]

A              [G/A   D/A]
(no vocals)
 [RIFF]
(repeat and fade)

Comments