Beatles - I Want To Hold Your Hand Chords & Tabs

 

I Want To Hold Your Hand Chords & Tabs

Beatles Chords & Tabs

Version: 1 Type: Tab 0 ratings
1 star 2 stars 3 stars 4 stars 5 stars
comments

I Want To Hold Your Hand Tab

   
----------------------------------PLEASE NOTE---------------------------------#
#This file is the author's own work and represents their interpretation of the #
#song. You may only use this file for private study, scholarship, or research. #
#------------------------------------------------------------------------------#
[ Tab from: http://www.guitartabs.cc/tabs/b/beatles/i_want_to_hold_your_hand_tab.html ]
Date: Thu, 10 Jan 1980 19:36:22 -0600 
From: Jordan Kelly  
Subject: Guitar Tab: The Beatles ; I Want To Hold Your Hand 
 
 
                         I Want To Hold Your Hand 
              Words and Music by John Lennon and Paul McCartney 
          Typed and Transcribed by Jordan Kelly jordan@webzone.net 
 
 
Intro  *Guitar 1 plays Chords above Tab, Guitar 2 plays Tab. 
    C*        D*          C*         D*       C* 
E|------------|-------------------|----------------------| 
B|------------|---3---------------|--3-------------------| 
G|------0-----|---2---2------0----|--2----2--------0-----| 
D|---2-----0--|---0---0---2-----0-|--0----0----2-------0-| 
A|------------|-------------------|----------------------| 
E|------------|-------------------|----------------------| 
  D5 D6 D5  D6 D5   D6 D5 D6 
E|------------|-------------------| 
B|------------|-------------------| 
G|------------|---5b--------------| 
D|------------|-------------------| 
A|------------|-------------------| 
E|------------|-------------------| 
                        Oh Yeah 

Guitar Riff 1 
E|---------------------------- 
B|---------------5b----------- 
G|---------------------------- 
D|---------------------------- 
A|---5----4----5----6----7---- 
E|---------------------------- 
 
 
Guitar Outro Riff 2 
E|-------------------------3----- 
B|-------------------------0----- 
G|-------------------------0----- 
D|----2--0-------2---0-----0-----
A|-3----------3------------2----- 
E|-------------------------3----- 

Chords as used in this song. 
    EADGBE 
C*- X3555X  
D*- X5777X 
D5- X57XXX 
D6- X58XXX 
G5- 35XXXX 
G6- 36XXXX 
E5- 022XXX 
B7- X21202 
C-  X32010 
D-  XX0232 
G-  320001 
Em- 022000 



Comments