Beatles - I Want To Hold Your Hand Chords & Tabs

 

I Want To Hold Your Hand Chords & Tabs

Beatles Chords & Tabs

Version: 1 Type: Bass Tab

I Want To Hold Your Hand Bass Tab

Hello, this is my first time tabbing but i'm confident that this tab is right since I
have 4 version of this song on video in my computer.

Paul McCartney played the intro in two ways:       Note: The first two times
                                                   that you hit five are the
                                                   correct times Paul hitted
                                                   them it's up to you if you
                                                   wish to continue. Iv'e ma-
                                                   rked with the "|" symbol
                                                   the times I Paul does
                                                   them. Then the multiple "|
                                                   |||||||" symbols is the p-
                                                   art thats up to you.
                                                   Don't cut the sound of the
                                                   bass when you are hitting
                                                   5s.
  This is the one that Paul most often used.

             |           |          |||||||||||
E-------------------------------------------------|
A----3---5-5555--3---5-5555--3---5-55555555555555-|
D------2-----------2-----------2------------------|
G-------------------------------------------------|


This is the one that Paul used occasionally.(Concerts when he told people to clap
their hands)


             |           |          |||||||||||
E-------------------------------------------------|
A----3---0-0000--3---0-0000--3---5-00000000000000-|
D------2-----------2-----------2------------------|
G-------------------------------------------------|

Now the verse. Take it by steps. Hear the song.
[ Tab from: http://www.guitartabs.cc/tabs/b/beatles/i_want_to_hold_your_hand_btab.html ]
E-------------------------5-55-5----------------------9-99-9----|
A-------5---5-554567-77-7---------------5-554567-77-7-----------|
D--5--5---5----------------------5-55-5-------------------------|
G---------------------------------------------------------------|
(The optional part I came up with so it would help me get back to the rythm)
E---------------------------------------------------------------------------|
A--3-3-5-5-----7-7-3-3-5-5--------(----5-5-)--------------------------------|
D----------5-5-------------5hold--(5-55-5-5)--------------------------------|
G---------------------------------------------------------------------------|
You again play the same things
E-------------------------5-55-5----------------------9-99-9----|
A-------5---5-554567-77-7---------------5-554567-77-7-----------|
D--5--5---5----------------------5-55-5-------------------------|
G---------------------------------------------------------------|
Now, if you listen there's a twist.
E---------------------------------------------------------------|
A--3--5-5---7-7-3--5-5-------OR---(Optional Part)---------------|
D---------5------------5hold------------------------------------|
G---------------------------------------------------------------|
The bridge #1: On this bridge and the following one I will only put down the bases you 
figure out the fill-ins as some other versions may have.
E----------------------------------------------------------------------------|
A--5-55-5--------3-33-3--------5-55-5--------3-33---3--------3---------------|
D---------5-55-5--------7-77-7--------5-55-5-------5-5-5555-5-5-5555---------|
G----------------------------------------------------------------------------|
E----------------------------------------------------------------------------|
A---3------------------------------------------------------------------------|
D--5-5-555555555555555-------------------------------------------------------|
G----------------------------------------------------------------------------|
Back again to the verse
E-------------------------5-55-5----------------------9-99-9----|
A-------5---5-554567-77-7---------------5-554567-77-7-----------|
D--5--5---5----------------------5-55-5-------------------------|
G---------------------------------------------------------------|
Again the second bridge
E----------------------------------------------------------------------------|
A--5-55-5--------3-33-3--------5-55-5--------3-33---3--------3---------------|
D---------5-55-5--------7-77-7--------5-55-5-------5-5-5555-5-5-5555---------|
G----------------------------------------------------------------------------|
E----------------------------------------------------------------------------|
A---3------------------------------------------------------------------------|
D--5-5-555555555555555-------------------------------------------------------|
G----------------------------------------------------------------------------|
Last time the verse
E-------------------------5-55-5----------------------9-99-9----|
A-------5---5-554567-77-7---------------5-554567-77-7-----------|
D--5--5---5----------------------5-55-5-------------------------|
G---------------------------------------------------------------|
Now the OUTROS             |||||||||||||
E--------------------------77777777777777-------------------------|
A--3-3-5-5-----7-7-3-3-5-5--------------------5-----5----5--------|
D----------5-5----------------------------5-2---5-2---5-2--5HOLD--|
G-----------------------------------------------------------------|
Hold and do a right or left(depending if you are a left handed player like Paul)vibrato. 
There You Go. I Want To Hold Your Hand. Questions? send them to volksgren_89th@hotmail.com